» » »

Franz Ferdinand - Do You Want To Tabs

Artists:  A B C D E F G H I J K L M N O P Q R S T U V W X Y Z # 

Do You Want To Tabs

(ver. 3) Click to play this song!
Franz Ferdinand
 Rating:
4.4/5 (7 votes)

 Do You Want To lessons Tabs too difficult? Try these video lessons and learn fast
 
                e|---------------------------------------------------------------------------|
B|---------------------------------------------------------------------------|
G|--3/7------------5(b)-7(b)---7h5-------------------------------------------|
D|---------------------------------7---(x4 without the 3/7)------------------|
A|---------------------------------------------------------------------------|
E|---------------------------------------------------------------------------|

e|-----------------------------5---5--5(b)----3-5----------------------------|
B|-------------------------------7-----------------6-5-6-6-5-6-3-------------|
G|-5--5-4-5-5-4-5-5-4-5-4-5/-7-----------------------------------------------|
D|---------------------------------------------------------------5-----------|(x2-only the 65665635)
A|---------------------------------------------------------------------------|
E|---------------------------------------------------------------------------|

e|---------------------------------------------------------------------------|
B|-6-5---5--6-8-6------------------------------------------------------------|
G|-----5----------5----------------------------------------------------------|
D|------------------------5--5---5--------5---5------------------------------|
A|---------------------------------------------------------------------------|
E|----------------------3---3--3--------3---3---3-(x2-starting-with-the-35)--|

e|---------------------------------------------------------------------------|
B|----------------------6-5-6-6-5-6-3----------------------------------------|
G|---5---5-------------------------------------------------------------------|
D|-------------3---3------------------5-----(repeat-starting-with-the-3-5's)-|
A|-3---3---3-----------------------------------------------------------------|
E|-----------1---1---1-------------------------------------------------------|

e|---------------------------------------------------------------------------|
B|----------------------------------------------------------6-5-6-6-5-6-3----|
G|---------------------------------------------------------------------------|
D|-----------------------------------------------------------------------5---|
A|0-0-0-0-0-0-0-0-0-0-0-0-2-3--------------------------0-3-------------------|
E|----------------------------1-1-1-1-1-1-1-1-1-1-1-1-1----3-----------------|
repeat starting with the 000000000000023)then repeat whole song once
                  BRIDGE
e|---------------------------------------------------------------------------|
B|---------------------------------------------------------------------------|
G|---------------------------------------------------------------------------|
D|----5--------5-------------------------------------------------------------|
A|---------------------------------------------------------------------------|
E|3-3--3-3--3-3-3-0-1-2------------------------------------------------------|x4

e|---------------------------------------------------------------------------|
B|---------------------------------------------------------------------------|
G|---------------------------------------------------------------------------|
D|---------------------------------------------------------------------------|
A|---------------3(x32)-5(x32)-----------------------------------------------|
E|--6(x8)-5(x46)-------------------repeat-the-65665635-thing-then-the-verse--|

e|---------------------------------------------------------------------------|
B|---------------------------------------------------------------------------|
G|-------3-------------------------------------------------------------------|
D|-3-----5---------------------------------3-4-5-6-----------3---------------|
A|-5-----5---------------------------------5-6-7-8-----------5---------------|
E|-5-(x4)--x2-(the-whole-power-chord-thing)5-6-7-8-x2--then--5-(let-ring)----|
| /  slide up
| \  slide down
| h  hammer-on
| p  pull-off
| ~  vibrato
| +  harmonic
| x  Mute note
===============================================================================
            
Submit corrections


        Do You Want To lessons Hard to play? Try these video lessons and learn fast Do You Want To lessons
        
↑ Back to top | Tablatures and chords for acoustic guitar and electric guitar, ukulele, drums are parodies/interpretations of the original songs. You may use it for private study, scholarship, research or language learning purposes only