» » »

Franz Ferdinand - Can't Stop Feeling Tabs

Artists:  A B C D E F G H I J K L M N O P Q R S T U V W X Y Z # 

Can't Stop Feeling Tabs

(ver. 3) Click to play this song!
Franz Ferdinand
 Rating:
4/5 (4 votes)

 Can't Stop Feeling lessons Tabs too difficult? Try these video lessons and learn fast
 
                Cant Stop Feeling


MAIN RIFF

e|---------------------------------------------------------------------------|
B|---------------------------------------------------------------------------|
G|---------------------------------------------------------------------------|
D|---------------------------------------------------------------------------|
A|---7-7-7-7-7-5-3-2-3--------7-7-7-7-7-5-3-2-3-----7-7-7-7-7-7-5-3-2-3------|
E|-5------------------------5---------------------5--------------------------|

e|---------------------------------------------------------------------------|
B|---------------------------------------------------------------------------|
G|---------------------------------------------------------------------------|
D|---------------------------------------------------------------------------|
A|---7-7-7-7---7-------------------------------------------------------------|
E|-5--------------7-7-7-7----------------------------------------------------|


VERSE

Am                        Dm      C                      E
the salt starts stinging again, i cant stop feeling no i wont stop feeling
funs not fun            anymore i cant stop feeling no i wont stop feeling
Am           Dm             C            E
you leave me here on my own you leave me here on the floor

Am              Dm               C                E
you cant feel it you cant feel it you cant feel it you cant feel anymore
feel anymore    feel anymore     feel anymore

MAIN RIFF

VERSE

MAIN RIFF

INTERLUDE

Am           F                        G               E
So boy youre down and alone and youre soul is broken again

        F                       D                 E              
But you cant stop moving no you wont stop moving along


MAIN RIFF

OUTRO

Am               C                Dm               E   
you cant feel it you cant feel it you cant feel it you cant feel anymore

Am
            
Submit corrections


        Can't Stop Feeling lessons Hard to play? Try these video lessons and learn fast Can't Stop Feeling lessons
        
↑ Back to top | Tablatures and chords for acoustic guitar and electric guitar, ukulele, drums are parodies/interpretations of the original songs. You may use it for private study, scholarship, research or language learning purposes only