» » »

Franz Ferdinand - Bullet Tabs

Artists:  A B C D E F G H I J K L M N O P Q R S T U V W X Y Z # 

Bullet Tabs

(ver. 2) Click to play this song!
Franz Ferdinand
 Rating:
4/5 (4 votes)

 Bullet lessons Tabs too difficult? Try these video lessons and learn fast
 
                Tuning: Standard (EADGBe)

Intro
e|-----------------|-----------------|-----------------|-----------------|
B|-----------------|-----------------|-----------------|-----------------|
G|-----------------|-----------------|-----------------|-----------------|
D|-----------------|-----------------|-----------------|-----------------|
A|-----------------|-----------------|-----------------|-----------------|
E|-----------------|-----------------|-8-8-8-7---7-7-7-|-8-8-8-7---7-7-7-|

Intro Riff
          G                  Em                 B                 D
e|------------------|-----------------|------------------|------------------|
B|------------------|-----------------|------------------|------------------|
G|------------------|-----------------|------------------|------------------|
D|--------9---9-9-9-|-10-9-7----------|-7-9-10-9---9-9-9-|-7-9-10-9---9-9-9-|
A|-10-9-7-----------|-------7---7-7-7-|------------------|------------------|
E|------------------|-----------------|------------------|------------------|


e|------------------|-----------------|------------------|-------------------|
B|------------------|-----------------|------------------|-------------------|
G|------------------|-----------------|------------------|-------------------|
D|--------9---9-9-9-|-10-9-7----------|-7-9-10-9---9-9-9-|-7-9-10-9-7-9-10-9-|
A|-10-9-7-----------|-------7---7-7-7-|------------------|-------------------|
E|------------------|-----------------|------------------|-------------------|

Bridge Riff

e|-----------------|-----------------|-----------------|-----------------|
B|-----------------|-----------------|-----------------|-----------------|
G|-----------------|-----------------|-----------------|-----------------|
D|-----------------|-----------------|-----------------|-----------------|
A|-----------------|-----------------|-----------------|-----------------|
E|-3-3-3-3-5-3-5-3-|-7-7-7-7-3-5-3-7-|-3-3-3-3-5-3-5-3-|-7-7-7-7-3-5-3-7-|

e|-----------------|-----------------|-----------------|-----------------|
B|-----------------|-----------------|-----------------|-----------------|
G|-----------------|-----------------|-----------------|-----------------|
D|-----------------|-----------------|-----------------|-----------------|
A|-----------------|-----------------|-----------------|-----------------|
E|-3-3-3-3-5-3-5-3-|-7-7-7-7-3-5-3-7-|-3-3-3-3-5-3-5-3-|-7-7-7-7-5-------|

Solo (Same as Intro Riff)

e|------------------|-----------------|------------------|------------------|
B|------------------|-----------------|------------------|------------------|
G|------------------|-----------------|------------------|------------------|
D|--------9---9-9-9-|-10-9-7----------|-7-9-10-9---9-9-9-|-7-9-10-9---9-9-9-|
A|-10-9-7-----------|-------7---7-7-7-|------------------|------------------|
E|------------------|-----------------|------------------|------------------|


e|------------------|-----------------|------------------|-------------------|
B|------------------|-----------------|------------------|-------------------|
G|------------------|-----------------|------------------|-------------------|
D|--------9---9-9-9-|-10-9-7----------|-7-9-10-9---9-9-9-|-7-9-10-9-7-9-10-9-|
A|-10-9-7-----------|-------7---7-7-7-|------------------|-------------------|
E|------------------|-----------------|------------------|-------------------|


Here. Play with it a little. youonlyliveonce's chord tabs are correct, imo.
            
Submit corrections


        Bullet lessons Hard to play? Try these video lessons and learn fast Bullet lessons
        
↑ Back to top | Tablatures and chords for acoustic guitar and electric guitar, ukulele, drums are parodies/interpretations of the original songs. You may use it for private study, scholarship, research or language learning purposes only