» » »

Franz Ferdinand - Auf Achse Bass

Artists:  A B C D E F G H I J K L M N O P Q R S T U V W X Y Z # 

Auf Achse Bass

(ver. 2) Click to play this song!
Franz Ferdinand
 Rating:
4/5 (6 votes)

 Auf Achse lessons Tabs too difficult? Try these video lessons and learn fast
 
                -------------------------------------------------------------------------------
			     Auf Achse - Franz Ferdinand
-------------------------------------------------------------------------------

Tuning: EADG

Note: (+) gives the beat (one, two, three, four)
      
            Intro (0:00)
   + + + +  + + + +  + + + +  + + + +
G||--------|--------|--------|--------||
D|:--------|--------|--------|--------:|
A|:0r------|3r------|5r------|8r------:|
E||--------|--------|--------|--------||x2

            Verse (0:32)
   +       +       +       +
G||--------------------------------|           \
D|:--7-9\7---7-9\7---7-9\7---7---7/|           |
A|:--------------------------------|           |
E||5-------5-------5-------5---5---|           |
                                               \
  +       +       +       +                     \         
G|--5-7\5---5-7\5---5-7\5---5---5/|              \
D|--------------------------------|               \
A|3-------3-------3-------3---3---|                \
E|--------------------------------|                 \
                                                     \ x4
  +       +       +       +                          /  
G|--7-9\7---7-9\7---7-9\7---7---7/|                 /
D|--------------------------------|                /
A|5-------5-------5-------5---5---|               /
E|--------------------------------|              /
                                                /
  +          +          +         +            /
G|--10-12\10---10-12\10---10---10---10---10||  |
D|-----------------------------------------:|  |
A|8----------8----------8----8----8----8---:|  |
E|-----------------------------------------||  /

            Chorus (1:34)
   +       +      +           +
G||-----------------------------------||
D|:-----------------------------------:|
A|:-------------5/10-10-10-10\8-8-8-8-:|
E||5-5-5-5-5-5-5----------------------||x4

            Interlude (1:50)
   +   +   +   +    +   +   +   +    +   +   +   +
G||----------------|----------------|----------------||
D|:----------------|----------------|----------------:|
A|:----------------|----------------|----------------:|
E||5-5-5-5-5-5-5-57|8-8-8-8-8-8-8-8-|3-3-3-3-3-3-3-3-||x2

               Verse (2:13)
   +       +       +       +
G||--------------------------------|           \
D|:--7-9\7---7-9\7---7-9\7---7---7/|           |
A|:--------------------------------|           |
E||5-------5-------5-------5---5---|           |
                                               \
  +       +       +       +                     \         
G|--5-7\5---5-7\5---5-7\5---5---5/|              \
D|--------------------------------|               \
A|3-------3-------3-------3---3---|                \
E|--------------------------------|                 \
                                                     \ x2
  +       +       +       +                          /  
G|--7-9\7---7-9\7---7-9\7---7---7/|                 /
D|--------------------------------|                /
A|5-------5-------5-------5---5---|               /
E|--------------------------------|              /
                                                /
  +          +          +         +            /
G|--10-12\10---10-12\10---10---10---10---10||  |
D|-----------------------------------------:|  |
A|8----------8----------8----8----8----8---:|  |
E|-----------------------------------------||  /

            Chorus (2:43)
   +       +      +           +
G||-----------------------------------||
D|:-----------------------------------:|
A|:-------------5/10-10-10-10\8-8-8-8-:|
E||5-5-5-5-5-5-5----------------------||x4

           Bridge (2:59)                                (3:17)
  +   +   +   +          +   +   +   +             +   +   +   +
G|----------------|   G||----------------||      G|----------------|
D|----------------|   D|:----------------:|      D|----------------|
A|----------------|   A|:5-5-5-5---------:|      A|----------------|
E|5-5-5-5-6-6-6-6-|   E||--------6-6-6-6-||x4    E|1-1-1-1/5-5-5-5-|

            Verse (3:21)
   +       +       +       +
G||--------------------------------|           \
D|:--7-9\7---7-9\7---7-9\7---7---7/|           |
A|:--------------------------------|           |
E||5-------5-------5-------5---5---|           |
                                               \
  +       +       +       +                     \         
G|--5-7\5---5-7\5---5-7\5---5---5/|              \
D|--------------------------------|               \
A|3-------3-------3-------3---3---|                \
E|--------------------------------|                 \
                                                     \ x2
  +       +       +       +                          /  
G|--7-9\7---7-9\7---7-9\7---7---7/|                 /
D|--------------------------------|                /
A|5-------5-------5-------5---5---|               /
E|--------------------------------|              /
                                                /
  +          +          +         +            /
G|--10-12\10---10-12\10---10---10---10---10||  |
D|-----------------------------------------:|  |
A|8----------8----------8----8----8----8---:|  |
E|-----------------------------------------||  /

            Outro (3:52)
  + + + +  + + + +  + + + +  + + + +  + + + +        
G|--------|--------|--------|--------|--------|
D|--------|--------|--------|--------|--------|
A|0r------|3r------|5r------|8r------|0r------|
E|--------|--------|--------|--------|--------|

| r  ring
| /  slide up
| \  slide down
===============================================================================
            
Submit corrections


        Auf Achse lessons Hard to play? Try these video lessons and learn fast Auf Achse lessons
        
↑ Back to top | Tablatures and chords for acoustic guitar and electric guitar, ukulele, drums are parodies/interpretations of the original songs. You may use it for private study, scholarship, research or language learning purposes only