» » »

Frank Sinatra - Fly Me To The Moon Tabs

Artists:  A B C D E F G H I J K L M N O P Q R S T U V W X Y Z # 

Fly Me To The Moon Tabs

(ver. 3) Click to play this song!
Frank Sinatra
 Rating:
4/5 (4 votes)

 Fly Me To The Moon lessons Tabs too difficult? Try these video lessons and learn fast
 
                Tuning:Standard

e|-3~-------2--0~----------------0--3--2~-------0----------------------------|
B|-------0--------3--1--------3--------------------3--1--0~-------0----------|
G|-------------------------------------------2-----------------------0-------|
D|-------------------------2--------------0--------------------0--------0----|
A|----------------------0----------------------------------------------------|
E|----0-----------------------------------------------------3----------------|

e|-0--------------------------------0----------------------------------------|
B|----------3--1--0-----------0--1-----4--------1--0-------------------------|
G|-------0-----------2~-------------------------------2--0~~~~~~~~~~~1~------|
D|-------------------------------------------------1~-~-----------2-----2----|
A|----3-----------------0--2~-------------3--2-----------------2-----------2-|
E|-------------------------------2~~~-----------------------0----------------|

e|----0--0--------------------3-----2--------------------------------0-|
B|----------------------------1-----1--3-----------0-----------------0-|
G|-2-----------0--------2-----------------------0-----------------0----|
D|----------------2--4-----0-----0-----------0-----------------0-------|
A|-3--------0-----------------------------------------------0----------|
E|----------------------------------------3-----------2--0-------------|

e|----------------------------0------------------------------------------------|
B|-------------------------------1--3-----1-----0-----------------0-------0----|
G|-------5--5--0-----0-----2-----------2--------------2--0-----2---------2-----|
D|-4--5-----------2-----0--------------------------0-----------------2--1------|
A|----0----------------------------------------------------------------------2-|
E|-------------------------------------------3--------------2------------------|



e|-3~-------2--0~----------------0--3--2~-------0----------------------------|
B|-------0--------3--1--------3--------------------3--1--0~-------0----------|
G|-------------------------------------------2-----------------------0-------|
D|-------------------------2--------------0--------------------0--------0----|
A|----------------------0----------------------------------------------------|
E|----0-----------------------------------------------------3----------------|

e|-0--------------------------------0----------------------------------------|
B|----------3--1--0-----------0--1-----4--------1--0-------------------------|
G|-------0-----------2~-------------------------------2--0~~~~~~~~~~~1~------|
D|-------------------------------------------------1~-~-----------2-----2----|
A|----3-----------------0--2~-------------3--2-----------------2-----------2-|
E|-------------------------------2~~~-----------------------0----------------|

e|----0--0--------------------3-----2-----------------------------------3--5-|
B|----------------------------1-----1--3-----------0-----------0-------------|
G|-2-----------0--------2-----------------------0-----------0--------0-------|
D|----------------2--4-----0-----0-----------0--------4--3-------------------|
A|-3--------0--------------------------------------------------------------3-|
E|----------------------------------------3-----------------------3----------|

e|-0--0-----------------3-----5-----3-------------------|
B|-------1-----------------------------------0----------|
G|----------2--0-----2-----2-----4--------0--------0----|
D|----------------0-----------------------------4-------|
A|------------------------------------------------------|
E|-------------------------------------3--------------3-|

            
Submit corrections


        Fly Me To The Moon lessons Hard to play? Try these video lessons and learn fast Fly Me To The Moon lessons
        
↑ Back to top | Tablatures and chords for acoustic guitar and electric guitar, ukulele, drums are parodies/interpretations of the original songs. You may use it for private study, scholarship, research or language learning purposes only