» » »

Fountains Of Wayne - Someone To Love Tabs

Artists:  A B C D E F G H I J K L M N O P Q R S T U V W X Y Z # 

Someone To Love Tabs

(ver. 3) Click to play this song!
Fountains Of Wayne
 Rating:
4/5 (4 votes)

 Someone To Love lessons Tabs too difficult? Try these video lessons and learn fast
 
                (Intro)
Noticed the intro was missing for this song. Enjoy!

   Bm                 F#                         

E [---------2-------][-----------------]
B [------------3--2-][------------2----]
G [--3-/-4----------][-----3-h-4-------]
D [-----------------][--4--------------]
A [-----------------][-----------------]
E [-----------------][-----------------]

   
   G                  D

E [-----------------][-----------------]
B [--------2--3-----][-----------------]
G [-----4-----------][-----------------]
D [--5--------------][--2--4--4--------]
A [-----------------][-----------------]
E [-----------------][-----------------]


Thats it. Great song.
            
Submit corrections


        Someone To Love lessons Hard to play? Try these video lessons and learn fast Someone To Love lessons
        
↑ Back to top | Tablatures and chords for acoustic guitar and electric guitar, ukulele, drums are parodies/interpretations of the original songs. You may use it for private study, scholarship, research or language learning purposes only