» » »

Fountains Of Wayne - Denise Tabs

Artists:  A B C D E F G H I J K L M N O P Q R S T U V W X Y Z # 

Denise Tabs

(ver. 1) Click to play this song!
Fountains Of Wayne
 Rating:
4/5 (4 votes)

 Denise lessons Tabs too difficult? Try these video lessons and learn fast
 
                Fountains Of Wayne - Denise

I'm pretty sure it's 100% correct.
Enjoy!


Intro/Verses
--------------------------------------------
--------------------------------------------
------x-x-10-10-x-x-11-11-x-x-11-11---------
--8-8-x-x-10-10-x-x-11-11-x-x-11-11-11------
--8-8-x-x-8--8--x-x-9--9--x-x-9--9--11(*4)--
--6-6-------------------------------9-------

Pre Chorus
-----------------------
-----------------------
---------6------8------ play three times
--4------6(*4)--8(*8)--
--4(*4)--4------6------
--2--------------------

----------------------------------
----------------------------------
--10------11------10------11------
--10(*8)--11(*8)--10(*8)--11(*8)-- play twice 
--8-------9-------8-------9-------
----------------------------------

Chorus
--------------------------------
--------------------------------
--6-----------------------------
--6(*16)--4-------8------4------
--4-------4(*16)--8(*8)--4(*8)--
----------2-------6------2------

Solo
-------------------------
--8b10r8-----------------
--8b10r8----------6------ play three times
------------8-6-8---8-6--
-------------------------
-------------------------

--------------------------------------------------
--------------------------------------------------
--/10-----------/10-10h11-8-------/10-----10-8-6--
--------6-8-6-----------------6-8-----8-----------
--------------8-------------------------9---------
--------------------------------------------------

End
--------------------------------
--------------------------------
--6-----------------------------
--6(*16)--6-------8------4------
--4-------6(*16)--8(*8)--4(*8)--
----------4-------6------2------
            
Submit corrections


        Denise lessons Hard to play? Try these video lessons and learn fast Denise lessons
        
↑ Back to top | Tablatures and chords for acoustic guitar and electric guitar, ukulele, drums are parodies/interpretations of the original songs. You may use it for private study, scholarship, research or language learning purposes only