» » »

Fountains Of Wayne - Stacy's Mom Bass

Artists:  A B C D E F G H I J K L M N O P Q R S T U V W X Y Z # 

Stacy's Mom Bass

(ver. 1) Click to play this song!
Fountains Of Wayne
 Rating:
4/5 (4 votes)

 Stacy's Mom lessons Tabs too difficult? Try these video lessons and learn fast
 
                this is my first tab so please rate it fairly


intro and verse     ( stacy can i come over after school,  after school....)
G|--------------------------------------------------------------------------|
D|--------------------------------------------------------------------------|
A|--------------------------------------------------------------------------|
E|--------- 0 0 0 5 5 5 5 5 7 7 7 5 5 5 5 5

pre chorus              (you know im not the little boy.......)
G|--------------------------------------------------------------------------|
D|--------------------------------------------------------------------------|
A|--------------------------------------------------------------------------|
E|------44444444555555554444444455555555-----------------------------------|

chorus 1+2          ( stacys mom has got it going on..........)
G|----------------------------------------|
D|----------------------------------------|
A|----------------2-222-4444--------------|
E|--5 55---0-00---------------------------|

G|----------------------------------------|
D|----------------------------------------|
A|----------------2-222-4444--------------|
E|--5 55---0-00---------------------------|


G|--------------------------------------------------------|
D|--------------------------------------------------------|
A|----------------3-333-4444------------------------------|
E|--5 55---0-00-------------------5555555577777777--------|

repeat verse

pre chorus

chorus 2

during solo + final chorus                   stacys mom has got it going on
G|--------------------------------------------|      (shes got it going on)
D|--------------------------------------------|      shes all i want and ive
A|3-33---------5-555-7777---------------------|            waited for so long
E|------3-33----------------------------------|        (waited and waited)...........

G|--------------------------------------|
D|--------------------------------------|
A|3-33---------5-555-7777---------------|
E|------3-33----------------------------|

G|--------------------------------------|
D|--------------------------------------|
A|3-33---------5-555-7777---------------|
E|------3-33----------------------------|

G|-----------------------------------|
D|-----------------------------------|
A|-3-3-3-3-3-3-3-3-5-5-5-5-5-5-5-5---|
E|-----------------------------------|

enjoy
            
Submit corrections


        Stacy's Mom lessons Hard to play? Try these video lessons and learn fast Stacy's Mom lessons
        
↑ Back to top | Tablatures and chords for acoustic guitar and electric guitar, ukulele, drums are parodies/interpretations of the original songs. You may use it for private study, scholarship, research or language learning purposes only