» » »

Fountains Of Wayne - Hey Julie Tabs

Artists:  A B C D E F G H I J K L M N O P Q R S T U V W X Y Z # 

Hey Julie Tabs

(ver. 2) Click to play this song!
Fountains Of Wayne
 Rating:
4/5 (4 votes)

 Hey Julie lessons Tabs too difficult? Try these video lessons and learn fast
 
                =======================================================================
Band: Fountains Of Wayne
Tuning: Standard (EADGBe)

h = hammer on                   
p = pull off                    
^ = bend                               
r = release
~ = let it ring                         
/ = slide up                             
\ = slide down                            
. = palm mute                              
+ = harmonic                                
v = vibrato

=======================================================================

Solo: 

e|--7--------------------3--|--7------------------------|
B|---8-10-8------------3----|---8-10-8----------7-8-7---|
G|-----------7h9-7---4------|-----------7h9-7-0------7--|
D|-----------------5--------|---------------------------|
A|--------------------------|---------------------------|
E|--------------------------|---------------------------|


e|--------------------------|-----------0---------------|
B|--------------------------|-3--3--0-----3---3---------|
G|--4---5-------------------|--0----------------0---0---|
D|----5---5h7-5-------------|-----2---0-----------4-----|
A|--------------5-7-5-------|---------------------------|
E|--------------------5^-3--|---------------------------|

=======================================================================
            
Submit corrections


        Hey Julie lessons Hard to play? Try these video lessons and learn fast Hey Julie lessons
        
↑ Back to top | Tablatures and chords for acoustic guitar and electric guitar, ukulele, drums are parodies/interpretations of the original songs. You may use it for private study, scholarship, research or language learning purposes only