» » »

Fountains Of Wayne - Bright Future In Sales Tabs

Artists:  A B C D E F G H I J K L M N O P Q R S T U V W X Y Z # 

Bright Future In Sales Tabs

(ver. 3) Click to play this song!
Fountains Of Wayne
 Rating:
4/5 (6 votes)

 Bright Future In Sales lessons Tabs too difficult? Try these video lessons and learn fast
 
                
Notes: My god, that riff is catchy...


Main Riff
|----------------------------------------
|----------------------------------------
|----------------------------------------
|-------------5-6-7----------------------
|---3-4-5---3---------3-5-5s6-5-3--------
|5-----------------5---------------------

Verse
|----------------------------------------------------------------
|---------------------------------7-7-7-7-7-7-7-7-------7--7--7--
|-7-7-7-7-7-7-7-7-2-2-2-2-2-2-2-2-7-7-7-7-7-7-7-7-------7--7--7--
|-7-7-7-7-7-7-7-7-2-2-2-2-2-2-2-2-5-5-5-5-5-5-5-5---3-4-5--5--5--
|-5-5-5-5-5-5-5-5-0-0-0-0-0-0-0-0-----------------5--------------

|----------------------------------------------------------------
|---------------------------------7-7-7-7-7-7-7-7----------------
|-7-7-7-7-7-7-7-7-2-2-2-2-2-2-2-2-7-7-7-7-7-7-7-7-7-7-7-7-7-7-7--
|-7-7-7-7-7-7-7-7-2-2-2-2-2-2-2-2-5-5-5-5-5-5-5-5-7-7-7-7-7-7-7--
|-5-5-5-5-5-5-5-5-0-0-0-0-0-0-0-0-----------------5-5-5-5-5-5-5--

|----------------------------------------------------------------
|----------------------------------------------------------------
|-7-7-7-7-7-7-7-7-----------------7-7-7-7-7-7-7-7----------------
|-7-7-7-7-7-7-7-7-7-7-7-7-7-7-7-7-7-7-7-7-7-7-7-7-4--4---4-5-7-9-
|-5-5-5-5-5-5-5-5-7-7-7-7-7-7-7-7-5-5-5-5-5-5-5-5-4--4---4-5-7-9-
|-----------------5-5-5-5-5-5-5-5-----------------2--2---2-3-5-7-

|-----
|-----
|--7--
|--7--
|--5--
|-----

Chorus
|----------------------------------------------------------------
|----------------------------------------------------------------
|------9--9------------------------------------------------------
|-7-7--9--9---9--9----9--9-9-9-----------------------------------
|-7-7--7--7---9--9----9--9-9-9-----------------------------------
|-5-5---------7--7----7--7-7-7-----------------------------------

|----------------------------------------------------------------
|----------------------------------------------------------------
|-----------------4-4-4-4-4-4-4-4-----------------7--------------
|-4-4-4-4-4-4-4-4-4-4-4-4-4-4-4-4-5-5-5-5-5-5-5-5-7--------------
|-4-4-4-4-4-4-4-4-2-2-2-2-2-2-2-2-5-5-5-5-5-5-5-5-5--------------
|-2-2-2-2-2-2-2-2-----------------3-3-3-3-3-3-3-3----------------

Bridge
|----------------------------------------------------------------
|----------------------------------------------------------------
|-9--------------------9-----------------------------------------
|-9----------9---------9---------9---10-12-----------------------
|-7----------9---------7---------9---10-12-----------------------
|------------7-------------------7---8--10-----------------------

Solo

sorry can't get it exactly. Its starts here:

b|---7s8--------------------------

and i just improv from there. If anyone gets it post in my corrections.



Lyrics (as best as I can tell)

Sleepin' on a planner at the port authority,
waitin' for my bus to come,
Seven scotch and sodas at the office party
Now I don't remember where I'm from

I think I had a black wallet
With a bus ticket
And a picture of my baby inside
And if I make it home alive

I'm gonna get my sh*t together
Cause I can't live like this forever,
You know I've come to far and I don't wanna flip (quit?)
I gotta new computer and a bright future in sales
(yeah yeah)
Yeah yeah, bright future in sales
(yeah yeah)
Yeah yeah, Yeah yeah

Headin' for the airport on a misty morning
Gonna catch a flight to Baltimore
Try to kill an hour with a whiskey-sour
If there's time i might have just one more

I gotta do some, quick readin'
for the big meetin'
but my head is spinning
and i can't quite open my eyes
as long as I don't have to drive

I'm gonna get my sh*t together
Cause I can't live like this forever,
You know I've come to far and I don't wanna flip (quit?)
I gotta new computer and a bright future in sales
yeah yeah
(Yeah yeah), bright future in sales
yeah yeah
(Yeah yeah) Yeah yeah

I had a line on a brand new account
But now i can't seem to find where i wrote the number down,
I try to focus,
I'm starin at the screen,
Pretendin' like a know what all these little flashing lights mean

(oh yeah)
            
Submit corrections


        Bright Future In Sales lessons Hard to play? Try these video lessons and learn fast Bright Future In Sales lessons
        
↑ Back to top | Tablatures and chords for acoustic guitar and electric guitar, ukulele, drums are parodies/interpretations of the original songs. You may use it for private study, scholarship, research or language learning purposes only