» » »

Flipsyde - Happy Birthday Tabs

Artists:  A B C D E F G H I J K L M N O P Q R S T U V W X Y Z # 

Happy Birthday Tabs

(ver. 3) Click to play this song!
Flipsyde
 Rating:
4/5 (5 votes)

 Happy Birthday lessons Tabs too difficult? Try these video lessons and learn fast
 
                A really easy way of playing this song.. i think it sounds very good..!

Main riff:
|-----------------------------------------------------------------------|
|-------------------------------------12--12----------------------------|
|-------12-11----11-12----12-14----14-------14--11-12----12-14-11-12-13-|
|-14-14-------12-------12-------12------14----12------12----------------|
|-----------------------------------------------------------------------|
|-----------------------------------------------------------------------|

Outro:
|------------------------------------------------------|
|-------------------------------------12--12---12------|
|-------12-11----11-12----12-14----14-------14---14-12-|
|-14-14-------12-------12-------12------14-------------|
|------------------------------------------------------|
|------------------------------------------------------|
            
Submit corrections


        Happy Birthday lessons Hard to play? Try these video lessons and learn fast Happy Birthday lessons
        
↑ Back to top | Tablatures and chords for acoustic guitar and electric guitar, ukulele, drums are parodies/interpretations of the original songs. You may use it for private study, scholarship, research or language learning purposes only