» » »

Flipsyde - Happy Birthday Tabs

Artists:  A B C D E F G H I J K L M N O P Q R S T U V W X Y Z # 

Happy Birthday Tabs

(ver. 2) Click to play this song!
Flipsyde
 Rating:
4/5 (11 votes)

 Happy Birthday lessons Tabs too difficult? Try these video lessons and learn fast
 
                It's very easy and you'll learn it in a second =)

----0--3--2---2--3-----3--5-----5--7---0---7--5-----2--3-------|
------------3-------3--------3-------------------3-------------|
---------------------------------------------------------------|
---------------------------------------------------------------|
---------------------------------------------------------------|
---------------------------------------------------------------|

-----3--5-----5--3--2--|
--3--------------------|
-----------------------|
-----------------------|
-----------------------|
-----------------------|

enjoy!
            
Submit corrections


        Happy Birthday lessons Hard to play? Try these video lessons and learn fast Happy Birthday lessons
        
↑ Back to top | Tablatures and chords for acoustic guitar and electric guitar, ukulele, drums are parodies/interpretations of the original songs. You may use it for private study, scholarship, research or language learning purposes only