» » »

Flipsyde - Angel Tabs

Artists:  A B C D E F G H I J K L M N O P Q R S T U V W X Y Z # 

Angel Tabs

(ver. 1) Click to play this song!
Flipsyde
 Rating:
4.6/5 (11 votes)

 Angel lessons Tabs too difficult? Try these video lessons and learn fast
 
                

Chords are played through the whole song


   F#              C#          G#             A#m

e|-----------------1--------------------------------------------------------|
B|-----------------2-----------4---------------6----------------------------|
G|--6--------------1-----------5---------------6----------------------------|
D|--8--------------3-----------6---------------8----------------------------|
A|--9--------------4-----------6--------------------------------------------|
E|--------------------------------------------------------------------------|
    she's an an-   gel         working on      God's Train
      


solo (2:10):

e|---------------------------------------------------------------------------|
B|---------------------------------------------------------------------------|
G|--------------6-------6----8--10---8----------6-----6----8---10----6-------|
D|------6h8---------8----------------------6h8------8------------------------|
A|---------------------------------------------------------------------------|
E|---------------------------------------------------------------------------|


e|---------------------------------------------------------------------------|
B|--------------------6--7--6---------6--------------------------------------|
G|------------6--8-------------8--6-------8--6--5----8--6--5--------5-6-5----|
D|-----8---6---------------------------------------------------8-------------|
A|---------------------------------------------------------------------------|
E|---------------------------------------------------------------------------|


e|-----------------9h13---11---9--11--9---------9-------9----11---13--9------|
B|--11-14\9--11--------------------------9h11-------11-----------------------|
G|---------------------------------------------------------------------------|
D|---------------------------------------------------------------------------|
A|---------------------------------------------------------------------------|
E|---------------------------------------------------------------------------|


e|--14-14-14p13--13-13-13p11---11-11-11p9---9-9-9p8---13b--11----------------|
B|---------------------------------------------------------------------------|
G|------------------------------------------------------------------10--8-8--|
D|---------------------------------------------------------------------------|
A|---------------------------------------------------------------------------|
E|---------------------------------------------------------------------------|

 
These are the backround licks in order(3:14 to end of song):        

e|---------------------------------------------------------------------------|
B|---------------------------------------------------------------------------|
G|---------10--8--------10--------------10--8----10-10-10-11--10--8----------|
D|---8h11---------8h11------11----8h11--------------------------------11-8---|
A|---------------------------------------------------------------------------|
E|---------------------------------------------------------------------------|

e|---------------------------------------------------------------------------|
B|---------------------------------------------------------------------------|
G|-------------10--8----------10--------10-11--10--8----------8--------------|
D|------8h11-----------8h11-------11--------------------11--8----------------|
A|---------------------------------------------------------------------------|
E|---------------------------------------------------------------------------|


e|------------------------------------------------------------------------------------|
B|-14-14-14-13---13-13-13-11---11-11-11-9---9-9-9-7---7--6---------------9-11-11h13-9-|
G|--------------------------------------------------------------8--10-11--------------|
D|----------------------------------------------------------11------------------------|
A|------------------------------------------------------------------------------------|
E|------------------------------------------------------------------------------------|

e|------------------------------11-11-11-9--9-9-9-8---13b--11b---------------|
B|--14-14-14-13---13-13-13-11------------------------------------------------|
G|---------------------------------------------------------------------------|
D|---------------------------------------------------------------------------|
A|---------------------------------------------------------------------------|
E|---------------------------------------------------------------------------|


e|---14-14-14-14-14b16--14-13-------14b16-14-13------14b16-14-13-----14-14--13---|
B|----------------------------14-----------------14--------------14------------14|
G|-------------------------------------------------------------------------------|
D|-------------------------------------------------------------------------------|
A|-------------------------------------------------------------------------------|
E|-------------------------------------------------------------------------------|

e|-----14-14-14b16-14-13--------14b16-14-13--------14-14-14b16-13-----13-14b-|
B|------------------------14-----------------14--------------------14--------|
G|---------------------------------------------------------------------------|
D|---------------------------------------------------------------------------|
A|---------------------------------------------------------------------------|
E|---------------------------------------------------------------------------|

This is played to end:

e|---------------------------------------------------------------------------|
B|--11-13-11---9-11-9---7-9-7---6-7-6----------------------------------------|
G|---------------------------------------------------------------------------|
D|---------------------------------------------------------------------------|
A|---------------------------------------------------------------------------|


| \  slide down
| p  pull-off
| h  hammer-on
| b  string bend
            
Submit corrections


        Angel lessons Hard to play? Try these video lessons and learn fast Angel lessons
        
↑ Back to top | Tablatures and chords for acoustic guitar and electric guitar, ukulele, drums are parodies/interpretations of the original songs. You may use it for private study, scholarship, research or language learning purposes only