» » »

Five Finger Death Punch - I Apologize Tabs

Artists:  A B C D E F G H I J K L M N O P Q R S T U V W X Y Z # 

I Apologize Tabs

(ver. 3) Click to play this song!
Five Finger Death Punch
 Rating:
4.3/5 (29 votes)

 I Apologize  lessons Tabs too difficult? Try these video lessons and learn fast
 
                e|----------------------------------------------------|
B|----------------------------------3-----------2-----|
G|----------0-----------0--------2-----------2--------|
D|-------2-----------0--------0-----------2-----------|
A|----2-----------2--------0-----------0--------------|
E|-0-----------3--------------------------------------| x6

And now i see clearly...
e|-3--------5--------5--------------------------------|
B|-3--------5--------6--------------------------------|
G|-5--------7--------7--------------------------------|
D|-5--------7--------7--------------------------------|
A|-3--------5--------5--------------------------------|
E|----------------------------------------------------|

All these time...
     E      G      D
e|---0------3------2------5-----3----2-------------|
B|---0------3------3------5-----3----2-------------|
G|---2------0------2------6-----4----3-------------|
D|---2------0------0------7-----5----4-------------|
A|---0------2-------------7-----5----4-------------|
E|----------3-------------5-----3----2-------------|

never understood...
e|---0------3------2------5--------------------------------------------------|
B|---0------3------3------5--------------------------------------------------|
G|---2------0------2------6--------------------------------------------------|
D|---2------0------0------7--------------------------------------------------|
A|---0------2-------------7--------------------------------------------------|
E|----------3-------------5--------------------------------------------------|

I apologize
     E      G      D
e|---0------3------2------5-----3----2-------------|
B|---0------3------3------5-----3----2-------------|
G|---2------0------2------6-----4----3-------------|
D|---2------0------0------7-----5----4-------------|
A|---0------2-------------7-----5----4-------------|
E|----------3-------------5-----3----2-------------|


One day...
e|----------------------------------------------------|
B|----------------------------------3-----------2-----|
G|----------0-----------0--------2-----------2--------|
D|-------2-----------0--------0-----------2-----------|
A|----2-----------2--------0-----------0--------------|
E|-0-----------3--------------------------------------|

And now i see clearly...
e|-3--------5--------5--------------------------------|
B|-3--------5--------6--------------------------------|
G|-5--------7--------7--------------------------------|
D|-5--------7--------7--------------------------------|
A|-3--------5--------5--------------------------------|
E|----------------------------------------------------|

All these time...
     E      G      D
e|---0------3------2------5-----3----2-------------|
B|---0------3------3------5-----3----2-------------|
G|---2------0------2------6-----4----3-------------|
D|---2------0------0------7-----5----4-------------|
A|---0------2-------------7-----5----4-------------|
E|----------3-------------5-----3----2-------------|

never understood...
e|---0------3------2------5--------------------------------------------------|
B|---0------3------3------5--------------------------------------------------|
G|---2------0------2------6--------------------------------------------------|
D|---2------0------0------7--------------------------------------------------|
A|---0------2-------------7--------------------------------------------------|
E|----------3-------------5--------------------------------------------------|

I apologize
e|----0-----5--------------------------------|
B|----0-----5--------------------------------|
G|----2-----6--------------------------------|
D|----2-----7--------------------------------|
A|----0-----7--------------------------------|
E|----------5--------------------------------|

One day the shadows will surround me
e|---0------3------2------5--------------------------------------------------|
B|---0------3------3------5--------------------------------------------------|
G|---2------0------2------6--------------------------------------------------|
D|---2------0------0------7--------------------------------------------------|
A|---0------2-------------7--------------------------------------------------|
E|----------3-------------5--------------------------------------------------|

All these time...
     E      G      D
e|---0------3------2------5-----3----2-------------|
B|---0------3------3------5-----3----2-------------|
G|---2------0------2------6-----4----3-------------|
D|---2------0------0------7-----5----4-------------|
A|---0------2-------------7-----5----4-------------|
E|----------3-------------5-----3----2-------------|

never understood...
e|---0------3------2------5--------------------------------------------------|
B|---0------3------3------5--------------------------------------------------|
G|---2------0------2------6--------------------------------------------------|
D|---2------0------0------7--------------------------------------------------|
A|---0------2-------------7--------------------------------------------------|
E|----------3-------------5--------------------------------------------------|

I apologize
     E      G      D
e|---0------3------2------5-----3----2-------------|
B|---0------3------3------5-----3----2-------------|
G|---2------0------2------6-----4----3-------------|
D|---2------0------0------7-----5----4-------------|
A|---0------2-------------7-----5----4-------------|
E|----------3-------------5-----3----2-------------|

End on this
e|----------------------------------------------------|
B|----------------------------------3-----------2-----|
G|----------0-----------0--------2-----------2--------|
D|-------2-----------0--------0-----------2-----------|
A|----2-----------2--------0-----------0--------------|
E|-0-----------3--------------------------------------|
            
Submit corrections


        I Apologize  lessons Hard to play? Try these video lessons and learn fast I Apologize  lessons
        
↑ Back to top | Tablatures and chords for acoustic guitar and electric guitar, ukulele, drums are parodies/interpretations of the original songs. You may use it for private study, scholarship, research or language learning purposes only