» » »

Five Finger Death Punch - I Apologize Tabs

Artists:  A B C D E F G H I J K L M N O P Q R S T U V W X Y Z # 

I Apologize Tabs

(ver. 1) Click to play this song!
Five Finger Death Punch
 Rating:
4.2/5 (30 votes)

 I Apologize  lessons Tabs too difficult? Try these video lessons and learn fast
 
                [Intro]

e|------------------------------------------|
B|------------------------------------------|
G|--14---10-------------14----10------------|
D|------------12---10--------------12---10--|
A|------------------------------------------|
E|------------------------------------------|

e|------------------------------------------|
B|------------------------------------------|
G|--12---10-------------12----10------------|
D|------------12---10--------------12---10--|
A|------------------------------------------|
E|------------------------------------------|            
Submit corrections


        I Apologize  lessons Hard to play? Try these video lessons and learn fast I Apologize  lessons
        
↑ Back to top | Tablatures and chords for acoustic guitar and electric guitar, ukulele, drums are parodies/interpretations of the original songs. You may use it for private study, scholarship, research or language learning purposes only