» » »

Five Finger Death Punch - I Apologize Tabs

Artists:  A B C D E F G H I J K L M N O P Q R S T U V W X Y Z # 

I Apologize Tabs

(ver. 2) Click to play this song!
Five Finger Death Punch
 Rating:
4.3/5 (9 votes)

 I Apologize  lessons Tabs too difficult? Try these video lessons and learn fast
 
                e|----------------------------|
B|-(5)---(8)---(3)--(10)------|
G|-(4)---(7)---(2)---(9)------|
D|--2-----5-----0-----7-------|
A|--2-----5-----0-----7-------|
E|--2-----5-----0-----7-------|

    D     F     C     G 

[Pre-Chorus]
Strumming pattern missing but you should hear it

e|----------------------------|
B|-(13)----(12)---------------|
G|-(12)----(11)---------------|
D|--10---0--9---\\\\----------|
A|--10---0--9---\\\\----------|
E|--10---0--9---\\\\----------|

    Bm   C  A  (slide)

[Chorus]
Possibly a few notes missing but thats the most part
its repeated with slight alternate endings

Dots below indicate palm mute
e|--------------------------------------------------|
B|--------------------------------------------------|
G|--------------------------------------------------|
D|-2---2-4---5---xxx--0--0x-7-777x777--7-5-4--------|
A|-2---2-4---5---xxx--0--0x-7-777x777--7-5-4--------|
E|-2---2-4---5---xxx--0--0x-7-777x777--7-5-4--------|
                 ...          ..  .    . 

e|--------------------------------------------------|
B|--------------------------------------------------|
G|--------------------------------------------------|
D|-2---2-222-55--542--0--0--xxx--7x777-7-5-7--------|
E|-2---2-222-55--542--0--0--xxx--7x777-7-5-7--------|
E|-2---2-222-55--542--0--0--xxx--7x777-7-5-4--------|
          ..     ...        ...    .   . 

[Alternate Ending 1]
e|--------------------------------------------------|
B|--------------------------------------------------|
G|--------------------------------------------------|
D|-2---2-222-55--542--0--0--xxx--7x777-7-5-4--7~----|
A|-2---2-222-55--542--0--0--xxx--7x777-7-5-4--7~----|
E|-2---2-222-55--542--0--0--xxx--7x777-7-5-4--7~----|
          ..     ...        ...    .   . 

[Alternate ending 2]
e|--------------------------------------------------|
B|--------------------------------------------------|
G|--------------------------------------------------|
D|-2---2-222-55--542--0--0--xxx--7x777-7-5-77-5-7---|
A|-2---2-222-55--542--0--0--xxx--7x777-7-5-77-5-7---|
E|-2---2-222-55--542--0--0--xxx--7x777-7-5-77-5-7---|
          ..     ...        ...    .    
 
[Repeat Intro/verse]
e|----------------------------|
B|-(5)---(8)---(3)--(10)------|
G|-(4)---(7)---(2)---(9)------|
D|--2-----5-----0-----7-------|
A|--2-----5-----0-----7-------|
E|--2-----5-----0-----7-------|

    D     F     C     G 

[Pre-Chorus]
e|----------------------------|
B|-(13)----(12)---------------|
G|-(12)----(11)---------------|
D|--10---0--9---\\\\----------|
A|--10---0--9---\\\\----------|
E|--10---0--9---\\\\----------|

    Bm   C  A  (slide)

[Chorus]

[Solo]
e|--16b~~------11-12-14-11-12-14-12b~~--------11-12-14-11-12-11-9b~-----|
B|----------------------------------------------------------------------|
G|----------------------------------------------------------------------|
D|----------------------------------------------------------------------|
A|----------------------------------------------------------------------|
E|----------------------------------------------------------------------|


e|------9------9--------------------------------------------------------|
B|-12-9---9-12----------------------------------------------------------|
B|---------------6b-----------6-----6b*-6v------------------------------|
G|------------------------9-6---6-9----------------4--------------------|
D|---------------------------------------------4-6---6-4\2/4-4\2/4------|
A|----------------------------------------------------------------------|

                            (Palm mute from first 11 on G)  
e|-9-11-12-9-11-12-9----9------------------------------------------------|
B|-------------------12---10-9-10-12-9-----------------------------------|
G|-------------------------------------11----11----9---------------------|
D|----------------------------------------11----11---11--9----11----9----|
A|---------------------------------------------------------11----11---11-|
E|-----------------------------------------------------------------------|

                            (Release palm mute when you slide)  
e|---------------------------------------------------------------19b~----|
B|----------------------------------17----19----19----17-h19-p17---------|
G|---------------------4---6-4-6/18----18----18----18--------------------|
D|-----------4-----4-6---6-----------------------------------------------|
A|-9/7-9-7/4---4-7-------------------------------------------------------|
E|-----------------------------------------------------------------------|


e|-16-17-19-16br--19--16v~---------------|
B|---------------------------------------|
G|---------------------------------------|
D|---------------------------------------|
A|---------------------------------------|
E|---------------------------------------|

[Repeat Intro Once]
e|----------------------------|
B|-(5)---(8)---(3)--(10)------|
G|-(4)---(7)---(2)---(9)------|
D|--2-----5-----0-----7-------|
A|--2-----5-----0-----7-------|
E|--2-----5-----0-----7-------|

    D     F     C     G 

[No Pre-chorus]

[Then repeat chorus]
e|--------------------------------------------------|
B|--------------------------------------------------|
G|--------------------------------------------------|
D|-2---2-4---5---xxx--0--0x-7-777x777--7-5-4--------|
A|-2---2-4---5---xxx--0--0x-7-777x777--7-5-4--------|
E|-2---2-4---5---xxx--0--0x-7-777x777--7-5-4--------|
                 ...          ..  .    . 

e|--------------------------------------------------|
B|--------------------------------------------------|
G|--------------------------------------------------|
D|-2---2-222-55--542--0--0--xxx--7x777-7-5-7--------|
E|-2---2-222-55--542--0--0--xxx--7x777-7-5-7--------|
E|-2---2-222-55--542--0--0--xxx--7x777-7-5-4--------|
          ..     ...        ...    .   . 

[Alternate Ending 1]
e|--------------------------------------------------|
B|--------------------------------------------------|
G|--------------------------------------------------|
D|-2---2-222-55--542--0--0--xxx--7x777-7-5-4--7~----|
A|-2---2-222-55--542--0--0--xxx--7x777-7-5-4--7~----|
E|-2---2-222-55--542--0--0--xxx--7x777-7-5-4--7~----|
          ..     ...        ...    .   . 

[Alternate ending 2]
e|--------------------------------------------------|
B|--------------------------------------------------|
G|--------------------------------------------------|
D|-2---2-222-55--542--0--0--xxx--7x777-7-5-77-5-7---|
A|-2---2-222-55--542--0--0--xxx--7x777-7-5-77-5-7---|
E|-2---2-222-55--542--0--0--xxx--7x777-7-5-77-5-7---|
          ..     ...        ...    .    
 
[Repeat Intro Once and let ring]
e|----------------------------|
B|-(5)---(8)---(3)--(10)------|
G|-(4)---(7)---(2)---(9)------|
D|--2-----5-----0-----7-------|
A|--2-----5-----0-----7-------|
E|--2-----5-----0-----7-------|

    D     F     C     G
            
Submit corrections


        I Apologize  lessons Hard to play? Try these video lessons and learn fast I Apologize  lessons
        
↑ Back to top | Tablatures and chords for acoustic guitar and electric guitar, ukulele, drums are parodies/interpretations of the original songs. You may use it for private study, scholarship, research or language learning purposes only