Home » F » Fidlar »

Fidlar - Why Generation Tabs

Artists:  A B C D E F G H I J K L M N O P Q R S T U V W X Y Z # 

Why Generation Tabs

(ver. 1) Click to play this song!
Fidlar

e|---------------------------------------------------------------------------|
B|-----10/13---------------13-------------------------6/13-------------13----|
G|-------------14\13---14------14\13--14--10--7--6/7--------14\13--14--------|
D|---------------------------------------------------------------------------|
A|---------------------------------------------------------------------------|
E|---------------------------------------------------------------------------|

e|-----------------------------------10\8------------------------------------|
B|------------------------------------------9--------------------------------|
G|-----14\13--14--10\9/10\9/10\9/10------------------------------------------|
D|---------------------------------------------------------------------------|
A|---------------------------------------------------------------------------|
E|---------------------------------------------------------------------------|
            
Submit corrections

↑ Back to top | Tablatures and chords for acoustic guitar and electric guitar, ukulele, drums are parodies/interpretations of the original songs. You may use it for private study, scholarship, research or language learning purposes only