Home » F » Fidlar »

Fidlar - No Waves Tabs

Artists:  A B C D E F G H I J K L M N O P Q R S T U V W X Y Z # 

No Waves Tabs

(ver. 1) Click to play this song!
Fidlar
Chords:
E|-----------------------------------|
B|-----------------------------------|
G|--------------------------5--------|
D|--5-------9-------2-------5-(x16)--|
A|--5-(x16)-9-(x16)-2-(x16)-3--------|
E|--3-------7-------0----------------|


Main Riff:
E|-----------------------------------------------------------------|
B|--12--11--12--11--12--11--12--11--8--10--8--10--8--10--8--10-----|
G|-----------------------------------------------------------------|
D|-----------------------------------------------------------------|
A|-----------------------------------------------------------------|
E|-----------------------------------------------------------------|

E|--------------------------------------------------|
B|--5--8--5--8--5--8--5--8--3--5--3--5--3--5--3--5--|
G|--------------------------------------------------|
D|--------------------------------------------------|
A|--------------------------------------------------|
E|--------------------------------------------------|


Bass:
G|----------------------------------|
D|----------------------------------|
A|--------------------------3-(x16)-|
E|--3-(x16)-7-(x16)-0-(x16)---------|



1st Verse:
Chords & Bass

Bridge:
Chords, Main Riff & Bass

2nd Verse:
Bass x2
Chords & Bass x2

Bridge:
Chords, Main Riff & Bass

3rd Verse:
Chords & Bass

Bridge:
Chords, Main Riff & Bass

On the last time that the Main Riff is played it's slightly altered:

E|--------------------------------------------------------------|
B|--12--11--12--11--12--11--12--11--8--10--8--10--8--10--8--10--|
G|--------------------------------------------------------------|
D|--------------------------------------------------------------|
A|--------------------------------------------------------------|
E|--------------------------------------------------------------|



E|--------------------------------------------------|
B|--5--8--5--8--5--8--5--8--3--5--3--5--3--5--3--0--|
G|--------------------------------------------------|
D|--------------------------------------------------|
A|--------------------------------------------------|
E|--------------------------------------------------|
            
Submit corrections

↑ Back to top | Tablatures and chords for acoustic guitar and electric guitar, ukulele, drums are parodies/interpretations of the original songs. You may use it for private study, scholarship, research or language learning purposes only