Home » F » Fidlar »

Fidlar - White On White Tabs

Artists:  A B C D E F G H I J K L M N O P Q R S T U V W X Y Z # 

White On White Tabs

(ver. 1) Click to play this song!
Fidlar
INTRO:

Guitar 1&2:
                          +lots of feedback
E|----3~----------------3~---------------------------------------|
B|----3~----------------3~---------------------------------------|
G|----4~----------------4~---------------------------------------|
D|----5~----------------5~---------------------------------5-----|
A|----5~----------------5~---------------------------------5-----|
E|----3~----------------3~---------------------------------3-----|

E|-----------------------------------------------------| x2
B|-----------------------------------------------------|
G|----0h3-0----0h3-0--------------0h3-0---0h3-0--------|
D|-----------------------------------------------------|
A|-----------------------1-----------------------------|
E|--3--------3--------3--------3--------3--------1-2---|

VERSE:

Guitar 1:

E|-----------------------------------------------------|
B|-----------------------------------------------------|
G|----0h3-0----0h3-0--------------0h3-0---0h3-0--------|
D|-----------------------------------------------------|
A|-----------------------1-----------------------------|
E|--3--------3--------3--------3--------3--------1-2---|


Guitar 2:
E|--------------------------------------------------|
B|--------------------------------------------------|
G|-------------------33-----------------------------|
D|----55555555555555-33---555555555555-33-44--------|
A|----55555555555555-11---555555555555-33-44--------|
E|----33333333333333------333333333333-11-22--------|


POST VERSE:

Guitar 1&2:
E|--------------------------|
B|--------------------------|
G|--------------------------|
D|----77777777-6666-5555----|
A|----77777777-6666-5555----|
E|----55555555-4444-3333----|


RIFF I:

Guitar 1:
E|-------------------------------| x4
B|-------------------------------|
G|-------------------------------|
D|-----5-x-x-5-x-x-5-x-x-3-4-----|
A|-----5-x-x-5-x-x-5-x-x-3-4-----|
E|-----3-x-x-3-x-x-3-x-x-1-2-----|

Guitar 2:

e|---/15-151515151515--------------/15-1515-------1515----------------|
B|---/15-151515151515-15----15-----/15-1515-15----1515-15----15-------|
G|--------------------17b19-17b19-----------17b19------17b19-17b19----|
D|--------------------------------------------------------------------|
A|--------------------------------------------------------------------|
E|--------------------------------------------------------------------|

e|------------------------------------------------------------|
B|------------------------------------------------------------|
G|---17-15----15-17~---1717171717171515-----------------------|
D|---------17--------------------------1717171717171717~------|
A|------------------------------------------------------------|
E|------------------------------------------------------------|

Intro
Verse x 4
Post Verse
Riff I
Verse x6
Post Verse
and then:

RIFF II

Guitar 1:
E|-------------------------------| x8
B|-------------------------------|
G|-------------------------------|
D|-----5-x-x-5-x-x-5-x-x-3-4-----|
A|-----5-x-x-5-x-x-5-x-x-3-4-----|
E|-----3-x-x-3-x-x-3-x-x-1-2-----|

Guitar 2:

e|---/15-151515151515--------------/15-1515-------1515-----------------------|
B|---/15-151515151515-15----15-----/15-1515-15----1515-15----15--------------|
G|--------------------17b19-17b19-----------17b19------17b19-17b19-----------|
D|---------------------------------------------------------------------------|
A|---------------------------------------------------------------------------|
E|---------------------------------------------------------------------------|

e|-----------------------------------------------------------|
B|-----------------------------------------------------------|
G|---17-15----15-17~---1717171717171515----------------------|
D|---------17--------------------------1717171717171717~-----|
A|-----------------------------------------------------------|
E|-----------------------------------------------------------|

e|------------------------------------------------------------------------------|
B|--1212-1515-1717-1515-1212121212121010--1212-1515-1717-1515-1212121212121010--|
G|--1212-1515-1717-1515-1212121212121010--1212-1515-1717-1515-1212121212121010--|
D|------------------------------------------------------------------------------|
A|------------------------------------------------------------------------------|
E|------------------------------------------------------------------------------|

e|---------------------------------------------------------------------------------|
B|--121212121212-1515-171717171717-1515--15----1515-15----1515-15----15151515------|
G|--121212121212-1515-171717171717-1515--17b19-1717-17b19-1717-17b19-17171717------|
D|------------------------------------------------------------------------------5~-|
A|------------------------------------------------------------------------------5~-|
E|------------------------------------------------------------------------------3~-|

BRIDGE:

Guitar 1:
E|----3~----------------3~---------------------------------------|
B|----3~----------------3~---------------------------------------|
G|----4~----------------4~---------------------------------------|
D|----5~----------------5~---------------------------------5-----|
A|----5~----------------5~---------------------------------5-----|
E|----3~----------------3~---------------------------------3-----|

Guitar 2:
E|-------------------------| x4
B|-------------------------|
G|------3-1---3-1----------|
D|----------------33-44----|
A|-------------------------|
E|----3--------------------|

E|-----------------------------------------------------| x2
B|-----------------------------------------------------|
G|----0h3-0----0h3-0--------------0h3-0---0h3-0--------|
D|-----------------------------------------------------|
A|-----------------------1-----------------------------|
E|--3--------3--------3--------3--------3--------1-2---|            
Submit corrections

↑ Back to top | Tablatures and chords for acoustic guitar and electric guitar, ukulele, drums are parodies/interpretations of the original songs. You may use it for private study, scholarship, research or language learning purposes only