» » »

Fidlar - Scam Likely Tabs

Artists:  A B C D E F G H I J K L M N O P Q R S T U V W X Y Z # 

Scam Likely Tabs

(ver. 1) Click to play this song!
Fidlar
 Rating:
4.2/5 (30 votes)

 Scam Likely lessons Tabs too difficult? Try these video lessons and learn fast
 
                [Intro]
e|--x------------------|--x------------------|
B|--x-15--15---21--15--|--x-15--15---21--15--|
G|--x-14--14---19--14--|--x-14--14---19--14--|
D|--x-12--12---17--12--|--x-12--12---17--12--|
A|--x-12--12---17--12--|--x-12--12---17--12--|
E|--x------------------|--x------------------|


[Verse 1]
e|-------------------|---------------------|
B|--15--15---21--15--|--17--18--21-21--15--|
G|--14--14---19--14--|--16--17--19-19--14--|
D|--12--12---17--12--|--14--15--17-17--12--| (x4)
A|--12--12---17--12--|--14--15--17-17--12--|
E|-------------------|---------------------|


[Pre-Chorus 1]
e|-------------------|---------------------|
B|--10--10---10--10--|--15-10---13-13--10--|
G|---9---9----9---9--|--14--9---12-12---9--|
D|---7---7----7---7--|--12--7---11-11---7--| (x3)
A|---7---7----7---7--|--12--7---11-11---7--|
E|-------------------|---------------------|

e|---------------------------------------|
B|--10-10-10-10-10-10-10-10-10-10-10-10--|
G|---9--9--9--9--9--9--9--9--9--9--9--9--|
D|---7--7--7--7--7--7--7--7--7--7--7--7--|
A|---7--7--7--7--7--7--7--7--7--7--7--7--|
E|---------------------------------------|


[Chorus 1]
e|-------------------|---------------------|
B|--15--15---21--15--|--17--18--21-21--15--|
G|--14--14---19--14--|--17--17--19-19--14--|
D|--12--12---17--12--|--15--15--17-17--12--| (x6)
A|--12--12---17--12--|--15--15--17-17--12--|
E|-------------------|---------------------|


[Verse 2] Play Nothing


[Pre-Chorus 2]
e|-------------------|---------------------|
B|--10--10---10--10--|--15-10---13-13--10--|
G|---9---9----9---9--|--14--9---12-12---9--|
D|---7---7----7---7--|--12--7---11-11---7--| (x3)
A|---7---7----7---7--|--12--7---11-11---7--|
E|-------------------|---------------------|


[Chorus 2]
e|-------------------|---------------------|
B|--15--15---21--15--|--17--18--21-21--15--|
G|--14--14---19--14--|--17--17--19-19--14--|
D|--12--12---17--12--|--15--15--17-17--12--| (x4)
A|--12--12---17--12--|--15--15--17-17--12--|
E|-------------------|---------------------|

 
[Chorus 3]
e|-------------------|---------------------|
B|--15--15---21--15--|--17--18--21-21--15--|
G|--14--14---19--14--|--17--17--19-19--14--|
D|--12--12---17--12--|--15--15--17-17--12--| (x8)
A|--12--12---17--12--|--15--15--17-17--12--|
E|-------------------|---------------------|

            
Submit corrections


        Scam Likely lessons Hard to play? Try these video lessons and learn fast Scam Likely lessons
        
↑ Back to top | Tablatures and chords for acoustic guitar and electric guitar, ukulele, drums are parodies/interpretations of the original songs. You may use it for private study, scholarship, research or language learning purposes only