» » »

Fidlar - Aa Tabs

Artists:  A B C D E F G H I J K L M N O P Q R S T U V W X Y Z # 

Aa Tabs

(ver. 1) Click to play this song!
Fidlar
 Rating:
4.3/5 (28 votes)

 Aa lessons Tabs too difficult? Try these video lessons and learn fast
 
                [Intro]

e|-------------------|-------------------|-------------------|-------------------|
B|-------------------|-------------------|-------------------|-------------------|
G|-------------------|-------------------|-------------------|-------------------|
D|--5-5-5-5-5-5-5-5--|--5-5-5-5-5-5-5-5--|--5-5-5-5-5-5-5-5--|--5-5-5-5-5-5-5-5--|
A|--5-5-5-5-5-5-5-5--|--5-5-5-5-5-5-5-5--|--5-5-5-5-5-5-5-5--|--5-5-5-5-5-5-5-5--|
E|--3-3-3-3-3-3-3-3--|--3-3-3-3-3-3-3-3--|--3-3-3-3-3-3-3-3--|--3-3-3-3-3-3-3-3--|
          PM                  PM                  PM                  PM 

[Verse 1]

e|-------------------|-------------------|-------------------|-------------------|
B|-------------------|-------------------|-------------------|-------------------|
G|-------------------|--7-7-7-7-7-7-7-7--|--5-5-5-5-5-5-5-5--|-------------------|
D|--5-5-5-5-5-5-5-5--|--7-7-7-7-7-7-7-7--|--5-5-5-5-5-5-5-5--|--5-5-5-5-5-5-5-5--| (x3)
A|--5-5-5-5-5-5-5-5--|--5-5-5-5-5-5-5-5--|--3-3-3-3-3-3-3-3--|--5-5-5-5-5-5-5-5--|
E|--3-3-3-3-3-3-3-3--|-------------------|-------------------|--3-3-3-3-3-3-3-3--|
          PM                  PM                  PM                  PM 
e|-------------------|-------------------|-------------------|-------------------|
B|-------------------|-------------------|-------------------|-------------------|
G|-------------------|--7-7-7-7-7-7-7-7--|--5-5-5-5-5-5-5-5--|-------------------|
D|--5-5-5-5-5-5-5-5--|--7-7-7-7-7-7-7-7--|--5-5-5-5-5-5-5-5--|--5-5-5-5-5-x-x-x--| 
A|--5-5-5-5-5-5-5-5--|--5-5-5-5-5-5-5-5--|--3-3-3-3-3-3-3-3--|--5-5-5-5-5-x-x-x--|
E|--3-3-3-3-3-3-3-3--|-------------------|-------------------|--3-3-3-3-3-x-x-x--|
          PM                  PM                  PM                  PM 


[Chorus/Riff 1]

Guitar 1
e|-------------------|-------------------|-------------------|-------------------||
B|-------------------|-------------------|-------------------|-------------------||
G|-------------------|--7-7-7-7-7-7-7-7--|-------------------|--5-5-5-5-5-5-5-5--||
D|--5-5-5-5-5-5-5-5--|--7-7-7-7-7-7-7-7--|--2-2-2-2-2-2-2-2--|--5-5-5-5-5-5-5-5--||
A|--5-5-5-5-5-5-5-5--|--5-5-5-5-5-5-5-5--|--2-2-2-2-2-2-2-2--|--3-3-3-3-3-3-3-3--||
E|--3-3-3-3-3-3-3-3--|-------------------|--0-0-0-0-0-0-0-0--|-------------------||
          PM                  PM                  PM                  PM          |
Guitar 2                                                                          | (x2)
e|-------------------|-------------------|-------------------|-------------------||
B|-------------------|-------------------|-------------------|-------------------||
G|--14/16--14\12-----|--12/14-----14/16--|--14/16----14\12---|--12---------------||
D|---------------12--|-------------------|-------------------|-------------------||
A|-------------------|-------------------|-------------------|-------------------||
E|-------------------|-------------------|-------------------|-------------------||


[Verse 2]

e|-------------------|-------------------|-------------------|-------------------|
B|-------------------|-------------------|-------------------|-------------------|
G|-------------------|--7-7-7-7-7-7-7-7--|--5-5-5-5-5-5-5-5--|-------------------|
D|--5-5-5-5-5-5-5-5--|--7-7-7-7-7-7-7-7--|--5-5-5-5-5-5-5-5--|--5-5-5-5-5-5-5-5--| (x3)
A|--5-5-5-5-5-5-5-5--|--5-5-5-5-5-5-5-5--|--3-3-3-3-3-3-3-3--|--5-5-5-5-5-5-5-5--|
E|--3-3-3-3-3-3-3-3--|-------------------|-------------------|--3-3-3-3-3-3-3-3--|
          PM                  PM                  PM                  PM 
e|-------------------|-------------------|-------------------|-------------------|
B|-------------------|-------------------|-------------------|-------------------|
G|-------------------|--7-7-7-7-7-7-7-7--|--5-5-5-5-5-5-5-5--|-------------------|
D|--5-5-5-5-5-5-5-5--|--7-7-7-7-7-7-7-7--|--5-5-5-5-5-5-5-5--|--5-5-5-5-5-x-x-x--| 
A|--5-5-5-5-5-5-5-5--|--5-5-5-5-5-5-5-5--|--3-3-3-3-3-3-3-3--|--5-5-5-5-5-x-x-x--|
E|--3-3-3-3-3-3-3-3--|-------------------|-------------------|--3-3-3-3-3-x-x-x--|
          PM                  PM                  PM                  PM 


[Chorus/Riff 2]

Guitar 1
e|-------------------|-------------------|-------------------|-------------------||
B|-------------------|-------------------|-------------------|-------------------||
G|-------------------|--7-7-7-7-7-7-7-7--|-------------------|--5-5-5-5-5-5-5-5--||
D|--5-5-5-5-5-5-5-5--|--7-7-7-7-7-7-7-7--|--2-2-2-2-2-2-2-2--|--5-5-5-5-5-5-5-5--||
A|--5-5-5-5-5-5-5-5--|--5-5-5-5-5-5-5-5--|--2-2-2-2-2-2-2-2--|--3-3-3-3-3-3-3-3--||
E|--3-3-3-3-3-3-3-3--|-------------------|--0-0-0-0-0-0-0-0--|-------------------||
          PM                  PM                  PM                  PM          |
Guitar 2                                                                          | (x4)
e|-------------------|-------------------|-------------------|-------------------||
B|-------------------|-------------------|-------------------|-------------------||
G|--14/16--14\12-----|--12/14-----14/16--|--14/16----14\12---|--12---------------||
D|---------------12--|-------------------|-------------------|-------------------||
A|-------------------|-------------------|-------------------|-------------------||
E|-------------------|-------------------|-------------------|-------------------||

e|-------------------|
B|-------------------|
G|-------------------|
D|--5----------------|
A|--5----------------|
E|--3----------------|
          PM          

            
Submit corrections


        Aa lessons Hard to play? Try these video lessons and learn fast Aa lessons
        
↑ Back to top | Tablatures and chords for acoustic guitar and electric guitar, ukulele, drums are parodies/interpretations of the original songs. You may use it for private study, scholarship, research or language learning purposes only