» » »

Fall Out Boy - Hum Hallelujah Tabs

Artists:  A B C D E F G H I J K L M N O P Q R S T U V W X Y Z # 

Hum Hallelujah Tabs

(ver. 2) Click to play this song!
Fall Out Boy
 Rating:
4/5 (4 votes)

 Hum Hallelujah lessons Tabs too difficult? Try these video lessons and learn fast
 
                Album:Infinity on High

For your questions or suggestions,just post in friendster comment,PM or mail me.
                  
Gtr.Legends:
. - palm muting
~ - let it ring
x - dead string or scratching

Gtr.Tuning:Drop D(Alternative)

Gtr.1
e|---------------------------      ---------------------------------------|
B|-77-55555-77-55555---------      -77-55555-77-8888--77-55555-77-88888---|
G|-77-77777-77-77777-777777-- 6x   -77-77777-77-7777--77-77777-77-77777---| Timing....
D|--------------------------- Then ---------------------------------------|
A|---------------------------      ---------------------------------------|
D|---------------------------      ---------------------------------------|

Gtr.2 Enters:
e|-------------------------------------------|
B|-------------------------------------------|
G|-------------------------------------------|
D|------------00-0----00-0----00-0----00-0---|
A|-pickslide--00-0----00-0----00-0----00-0---|
D|------------00-0----00-0----00-0----00-0---|
              ..      ..      ..      ..

Verse 1:It's all a game...
e|--------------------------------|
B|--------------------------------|
G|---------------------4----------| 2x
D|-00-0----00-0-----00-4---00-5---|
A|-00-0----00-0-----00-2---00-5---|
D|-00-0----00-0-----00-----00-5---|
   ..      ..       ..     ..

Pre-Chorus 1:The road outside...
Gtr.1
e|------------------------------------------------      ------------|
B|------------------------------------------------      ------------|
G|------------------------------------------------ 3x   ------------|
D|-xx-9-xx-9---xx-7-xx-7---xx-0-xx-0---xx-5-xx-5-- Then -55555555---|
A|-xx-9-xx-9---xx-7-xx-7---xx-0-xx-0---xx-5-xx-5--      -55555555---|
D|-xx-9-xx-9---xx-7-xx-7---xx-0-xx-0---xx-5-xx-5--      -55555555---|

Gtr.2 Enters:
e|-----------------------------------------------------|
B|-----------------------------------------------------|
G|-7777-6666--11111111-12-11111111---77-99-1111-1414---| 2x
D|-xxxx-xxxx---x-x-x-x-xx--x-x-x-x---xx-xx--x-x-xxxx---|
A|-5555-4444---9-9-9-9-10--9-9-9-9---55-77--9-9-1212---|
D|-----------------------------------------------------|

Chorus:Hum Hallelujah...
Gtr.1
e|-------------------------------|
B|-------------------------------|
G|-------------------4444--------| 2x
D|-000~--555~--000~--4444-5555---|
A|-000~--555~--000~--2222-5555---|
D|-000~--555~--000~-------5555---|

Gtr.2                                       Pre-Verse 2
e|------------------------------            ------------------------|
B|-7777--777----777---77777777--            -7777-55-7777-55--------|
G|-777777777777777777777777777-- Repeat     -7777-77-7777-77-7777---|
D|-xxxxxxxxxxxxxxxxxxxxxxxxxxx-- Many Times ------------------------|
A|-555555555555555555555555555-- Then       ------------------------|
D|------------------------------            ------------------------|

Verse 2:My words are my....
Play Verse 1

Pre-Chorus 2:I love you in the...
Play Pre-Chorus 1

Repeat Chorus:
End with D~
 
Bridge:Hallelujah...                   Our teenage vow...
e|-------------------------------      ---------------------|
B|------------------------------- 2x   ---------------------|
G|------------------------------- Then -7~--------7~---4~---|
D|-000000000000--9999-7777-5555--      -7~---5~---7~---4~---|
A|-000000000000--9999-7777-5555--      -5~---5~---5~---2~---|
D|-000000000000--9999-7777-5555--      ------5~-------------|
   ............  .... .... ....

Chorus 3:Hum Hallelujah...
e|-------------------------------|
B|-------------------------------|
G|-7777--------7777--4444--------| Then
D|-7777--5555--7777--4444-5555---|
A|-5555--5555--5555--2222-5555---|
D|-------5555-------------5555---|

e|-------------------------------------------|
B|-------------------------------------------|
G|---------------------------4444------------| 2x
D|-000-xxx--555-xxx-000--xxx-4444-xxx-5555---|
A|-000-xxx--555-xxx-000--xxx-2222-xxx-5555---|
E|-000-xxx--555-xxx-000--xxx------xxx-5555---|

Last Chord:
e|----    ------|
B|----    ------|
G|-7~- or ------| Same sound..
D|-7~-    -0~---|
A|-5~-    -0~---|
D|----    -0~---|

End...


Hum Hallelujah Lyrics:

Verse 1:
It's all a game of this or that, now versus then
better off against worse for wear
And you’re someone who knows someone who knows someone I once knew
And I just want to be a part of this

Pre-Chorus 1:
The road outside my house is paved with good intentions
Hired a construction crew, 'cause it's hell on the engine
And you are the dreamer and we are the dream.
I could write it better than you ever felt it.

Chorus:
So hum hallelujah,
Just off the key of reason
I thought I loved you
It was just how you looked in the light.
A teenage vow in a parking lot
"Till tonight do us part"
I sing the blues and swallow them too

Verse 2:
My words are my faith to hell with our good name.
A remix of your guts-your insides X-rayed
And one day we'll get nostalgic for disaster
we're a bull, your ears are just a china shop

Pre-Chorus 2:
I love you in the same way, there's a chapel in a hospital
One foot in your bedroom and one foot out the door
Sometimes we take chances, sometimes we take pills.
I could write it better than you ever felt it.

Repeat Chorus:

Bridge:
Hallelujah, hallelujah, hallelujah, hallelu...
Hallelujah, hallelujah, hallelujah, hallelu...
(Hum hallelujah (Hum hallelujah), hum hallelujah (Hum hallelujah))

A teenage vow in a parking lot
"Till tonight do us part"
I sing the blues and swallow them too

So hum hallelujah,
Just off the key of reason
I thought I loved you
It was just how you looked in the light.
A teenage vow in a parking lot (Hum hallelujah)
"Till tonight do us part"
Love in a parking lot (Hum hallelujah)
"Till tonight do us part"
A teenage vow in a parking lot
"Till tonight do us part"
I sing the blues and swallow them too
            
Submit corrections


        Hum Hallelujah lessons Hard to play? Try these video lessons and learn fast Hum Hallelujah lessons
        
↑ Back to top | Tablatures and chords for acoustic guitar and electric guitar, ukulele, drums are parodies/interpretations of the original songs. You may use it for private study, scholarship, research or language learning purposes only