» » »

Fall Out Boy - Hum Hallelujah Tabs

Artists:  A B C D E F G H I J K L M N O P Q R S T U V W X Y Z # 

Hum Hallelujah Tabs

(ver. 1) Click to play this song!
Fall Out Boy
 Rating:
4/5 (4 votes)

 Hum Hallelujah lessons Tabs too difficult? Try these video lessons and learn fast
 
                -----------------------------------------------------------------------------
-----------------------------------------------------------------------------
If any problems, just contact me
Tuning:Drop D
Intro
e|------------------------------------|
B|------77--55555--77--55555--3333----|
G|------------------------------------|  x4
D|------------------------------------|
A|------------------------------------|
D|------------------------------------|

e|----------------------------------------------------------------|
B|----------------------------------------------------------------|
G|----------------------------------------------------------------|
D|----/0-0-0-0------5-5-5-5------0-0-0-0------5-5-5-5-------------|
A|----/0-0-0-0------5-5-5-5------0-0-0-0------5-5-5-5-------------|
D|----/0-0-0-0------5-5-5-5------0-0-0-0------5-5-5-5-------------|
 .-----x-x-x-R------x-x-x-R------x-x-x-R------x-x-x-R-------------|
End Intro - begin verse
"Its all a game of this or that now..."
e|----------------------------------------------------------------|
B|----------------------------------------------------------------|
G|----------------------------------------or--4-4-4-4-------------|
D|---------0-0-0-0----0-0-0-0----9-9-9-9--or--4-4-4-4----5-5-5-5--|  x2
A|---------0-0-0-0----0-0-0-0----9-9-9-9--or--2-2-2-2----5-5-5-5--|
D|---------0-0-0-0----0-0-0-0----9-9-9-9-----------------5-5-5-5--|
. ---------x-x-x-R----x-x-x-R----x-x-x-R-----------------x-x-x-R--|

    PRE-CHORUS
e|------------------------------------------------------------|
B|------------------------------------------------------------|
G|------------------------------------------------------------|
D|----9-9----7-7----0-0----5-5----9-9----7-7----0-0----5-5----|
A|----9-9----7-7----0-0----5-5----9-9----7-7----0-0----5-5----|
D|----9-9----7-7----0-0----5-5----9-9----7-7----0-0----5-5----|
  CHORUS: You have to hear the song for the last half of the chorus
e|--------------------------------------------------------------------|
B|--------------------------------------------------------------------|
G|--------------------------------------------------------------------|
D|--0-0---5-5-5-5---0-0-0-0---9-9-9-9-9---5-5-5-5---0-0-0-0-0-0-0-0-0-|
A|--0-0---5-5-5-5---0-0-0-0---9-9-9-9-9---5-5-5-5---0-0-0-0-0-0-0-0-0-|
D|--0-0---5-5-5-5---0-0-0-0---9-9-9-9-9---5-5-5-5---0-0-0-0-0-0-0-0-0-|

e|--------------------------------------------------------------------|
B|--------------------------------------------------------------------|
G|--------------------------------------------------------------------|
D|--5-5-5-5-5-5-5-5-5---0-0-0-0-0-0-0-0-0---9-9-9-9----5-5-5-5---x----|
A|--5-5-5-5-5-5-5-5-5---0-0-0-0-0-0-0-0-0---9-9-9-9----5-5-5-5---x----|
D|--5-5-5-5-5-5-5-5-5---0-0-0-0-0-0-0-0-0---9-9-9-9----5-5-5-5---x----|
 .------x-x-x-x-x-x-x-------x-x-x-x-x-x-x-----------------------------|
Post Chorus
e|--------------------------------------------------------------------------|
B|--------77--55555--77--55555--3333----------------------------------------|
G|--------------------------------------------------------------------------|
D|--------------------------------------------------------------------------|
A|--------------------------------------------------------------------------|
D|--------------------------------------------------------------------------|
-Verse
-Chorus
   Bridge
e|----------------------------------------------------------------------------|
B|----------------------------------------------------------------------------|
G|----------------------------------------------------------------------------|
D|----00000000000000000000000000000000000000000000000000000000000000000-------|
A|----00000000000000000000000000000000000000000000000000000000000000000-------|
D|----00000000000000000000000000000000000000000000000000000000000000000-------|
.-----xxxxxxxxxxxxxxxxxxxxxxxxxxxxxxxxxxxxxxxxxxxxxxxxxxxxxxxxxxxxxxxxx-------|

e|-----------------------------------------------------------|
B|-----------------------------------------------------------|
G|-----------------------------------------------------------|
D|---0-0-----5-5-----0-0-----9-9-----------------------------|
A|---0-0-----5-5-----0-0-----9-9-----------------------------|
D|---0-0-----5-5-----0-0-----9-9-----------------------------|
.----x-R-----x-R-----x-R-----x-R-----------------------------|

Repeat Chorus
 The End


| /  slide up
| \  slide down
| h  hammer-on
| p  pull-off
| ~  vibrato
| +  harmonic
| x  Mute note
| R  Let Ring a little
=============================================================================
            
Submit corrections


        Hum Hallelujah lessons Hard to play? Try these video lessons and learn fast Hum Hallelujah lessons
        
↑ Back to top | Tablatures and chords for acoustic guitar and electric guitar, ukulele, drums are parodies/interpretations of the original songs. You may use it for private study, scholarship, research or language learning purposes only