» » »

Fall Out Boy - Irresistible Bass

Artists:  A B C D E F G H I J K L M N O P Q R S T U V W X Y Z # 

Irresistible Bass

(ver. 1) Click to play this song!
Fall Out Boy
 Rating:
3.7/5 (23 votes)

 Irresistible lessons Tabs too difficult? Try these video lessons and learn fast
 
                Intro+Verse (start on second trumpets)
E)-----------5-----|
A)-2----5----------|
D)----------------2|
G)-----------------| x7

Pre-chorus
E)-3---2----|
A)----------|
D)---------2|
G)----------|

Chorus
E)xx-------5--3----|
A)xx-2-------------|
D)xx---------------|
G)xx---------------| x2

E)-----------5-----|
A)-2----5----------|
D)----------------2|
G)-----------------| x2

Verse
E)-----|-----------5-----|
A)-2--2|-2----5----------|
D)-----|----------------2|
G)-----|-----------------| x6

Pre-chorus
E)-3---2----|
A)----------|
D)---------2|
G)----------|

Chorus
E)xx-------5--3----|
A)xx-2-------------|
D)xx---------------|
G)xx---------------| x2

E)-----------5-----|
A)-2----5----------|
D)----------------2|
G)-----------------| x2

Bridge(wait for Patrick to come in)
E)-----------5-----|
A)-2----5----------|
D)----------------2|
G)-----------------| x2 

Pre-chorus
E)-3---2----|
A)----------|
D)---------2|
G)----------|

Chorus
E)xx-------5--3----|
A)xx-2-------------|
D)xx---------------|
G)xx---------------| x2

E)-----------5-----|
A)-2----5----------|
D)----------------2|
G)-----------------| x2            
Submit corrections


        Irresistible lessons Hard to play? Try these video lessons and learn fast Irresistible lessons
        
↑ Back to top | Tablatures and chords for acoustic guitar and electric guitar, ukulele, drums are parodies/interpretations of the original songs. You may use it for private study, scholarship, research or language learning purposes only