» » »

Fall Out Boy - Headfirst Slide Into Cooperstown On A Bad Bet Tabs

Artists:  A B C D E F G H I J K L M N O P Q R S T U V W X Y Z # 

Headfirst Slide Into Cooperstown On A Bad Bet Tabs

(ver. 2) Click to play this song!
Fall Out Boy
 Rating:
4/5 (4 votes)

 Headfirst Slide Into Cooperstown On A Bad Bet lessons Tabs too difficult? Try these video lessons and learn fast
 
                ------------------------------------------------------------------------------
Headfirst Slide Into Cooperstown On A Bad Bet – Fall Out Boy
-------------------------------------------------------------------------------

Tuning: Drop D

Downloaded this song from iTunes a while ago, and I absolutely love it. So, here’s a 
accurate
tab. Some parts are still missing, but this is the majority of it. If you have anything 
or just leave a comment. (Listen to the song for the strumming pattern)

Verse/Chorus: 0:08   6x
e|---------------------------------------------------------------------------|
B|---------------------------------------------------------------------------|
G|---------------------------------------------------------------------------|
D|-----8--8--7---10--12---12--10--12--10--------8--8--7---10--12---0--0--0-12|
A|-----8--8--7---10--12---12--10--12--10--------8--8--7---10--12---0--0--0-12|
D|-----8--8--7---10--12---12--10--12--10--------8--8--7---10--12---0--0--0-12|

It repeats this progression for a while, up until the post chorus, or
“I will never end up like him, behind my back I already am…”
This is all piano, but here’s a guitar version.

Post Chorus: 0:56    2x
e|---------------------------------------------------------------------------|
B|---------------------------------------------------------------------------|
G|--------10--------------9-------------7------------5-----------------------|
D|--------10-------------10-------------7------------5-----------------------|
A|---------8--------------7-------------5------------3-----------------------|
D|---------------------------------------------------------------------------|

Then, once it gets to
“The last time you came through, Oh darling I know what your going through”
The post chorus continues again with:

1:12    2x
e|---------------------------------------------------------------------------|
B|---------------------------------------------------------------------------|
G|---------------------------------------------------------------------------|
D|--00000000-22222222-33333333-55555555--------------------------------------|
A|--00000000-22222222-33333333-55555555--------------------------------------|
D|--00000000-22222222-33333333-55555555--------------------------------------|
    xxxxxxxx xxxxxxxx xxxxxxxx xxxxxxxx


Verse/Chorus: 1:28   8x
e|---------------------------------------------------------------------------|
B|---------------------------------------------------------------------------|
G|---------------------------------------------------------------------------|
D|-----8--8--7---10--12---12--10--12--10--------8--8--7---10--12---0--0--0-12|
A|-----8--8--7---10--12---12--10--12--10--------8--8--7---10--12---0--0--0-12|
D|-----8--8--7---10--12---12--10--12--10--------8--8--7---10--12---0--0--0-12|

Post Chorus(Piano): 2:24    2x
e|---------------------------------------------------------------------------|
B|---------------------------------------------------------------------------|
G|--------10--------------9-------------7------------5-----------------------|
D|--------10-------------10-------------7------------5-----------------------|
A|---------8--------------7-------------5------------3-----------------------|
D|---------------------------------------------------------------------------|

“The last time you came through…” 2:40    2x
e|---------------------------------------------------------------------------|
B|---------------------------------------------------------------------------|
G|---------------------------------------------------------------------------|
D|--00000000-22222222-33333333-55555555--------------------------------------|
A|--00000000-22222222-33333333-55555555--------------------------------------|
D|--00000000-22222222-33333333-55555555--------------------------------------|
    xxxxxxxx xxxxxxxx xxxxxxxx xxxxxxxx

“Does your husband know? Does your husband know…” 2:56    2x
e|---------------------------------------------------------------------------|
B|---------------------------------------------------------------------------|
G|---------------------------------------------------------------------------|
D|-----8--8--7---10--12---12--10--12--10--------8--8--7---10--12---0--0--0-12|
A|-----8--8--7---10--12---12--10--12--10--------8--8--7---10--12---0--0--0-12|
D|-----8--8--7---10--12---12--10--12--10--------8--8--7---10--12---0--0--0-12|

Outro: 3:12  4x

e|---------------------------------------------------------------------------|
B|---------------------------------------------------------------------------|
G|--------10--------------9-------------7------------5-----------------------|
D|--------10-------------10-------------7------------5-----------------------|
A|---------8--------------7-------------5------------3-----------------------|
D|---------------------------------------------------------------------------|

End On
e|---------------------------------------------------------------------------|
B|---------------------------------------------------------------------------|
G|---------------------------------------------------------------------------|
D|------3--------------------------------------------------------------------|
A|------3--------------------------------------------------------------------|
D|------3--------------------------------------------------------------------|
 There’s also an awesome solo in the 2nd half of the outro, but I’ve yet to figure out 
exact tabs
for it yet. But like I said earlier, if you feel like there’s anything missing, just 
me or leave a
comment. Enjoy!

| /  slide up
| \  slide down
| h  hammer-on
| p  pull-off
| ~  vibrato
| +  harmonic
| x  Mute note
===============================================================================
            
Submit corrections


        Headfirst Slide Into Cooperstown On A Bad Bet lessons Hard to play? Try these video lessons and learn fast Headfirst Slide Into Cooperstown On A Bad Bet lessons
        
↑ Back to top | Tablatures and chords for acoustic guitar and electric guitar, ukulele, drums are parodies/interpretations of the original songs. You may use it for private study, scholarship, research or language learning purposes only