» » »

Fall Out Boy - Headfirst Slide Into Cooperstown On A Bad Bet Tabs

Artists:  A B C D E F G H I J K L M N O P Q R S T U V W X Y Z # 

Headfirst Slide Into Cooperstown On A Bad Bet Tabs

(ver. 1) Click to play this song!
Fall Out Boy
 Rating:
4/5 (4 votes)
    Headfirst Slide Into Cooperstown On A Bad Bet lessons Tabs too difficult? Try these video lessons and learn fast
                Guitar 1: Intro
e|------------5-5-5-5-5-5-5-5-5-5-5-5-5-5-5-5-|
B|3-3-3-3-3-3-3-3-3-3-3-3-3-3-3-3-3-3-3-3-3-3-|
G|2-2-2-2-2-2-2-2-2-2-2-2-2-2-2-2-2-2-2-2-2-2-|
D|0-0-0-0-0-0-0-0-0-0-0-0-0-0-0-0-0-0-0-0-0-0-|
A|--------------------------------------------|
D|--------------------------------------------|

Guitar 2: Verse 1 (Repeat 4x)
e|----------|----------|----------|----------|
B|----------|----------|----------|----------|
G|----------|----------|----------|----------|
D|----------|----------|----------|----------|
A|------3-5-|5-3-5-3-5-|------3-5-|------5---|
D|8-8-7-----|----------|8-8-7-----|7-0-0---0-|
Mister Sandman showing his beam.
When he walks into the room, the walls lean in to listen.
Surfed out brain waves click back and forth like old headlights, sniffing model glue again.
Head like a steel trap.
Wish I didn’t, I didn’t, I didn’t, I didn’t, I didn’t, I didn’t, I didn’t.
I don’t just want to be a foot note in someone else’s happiness.

Guitars 1 & 2: Pre Chorus
e|----------|----------|----------|----------|
B|----------|----------|----------|----------|
G|----------|----------|----------|----------|
D|3-3-2-5-7-|7-5-7-5/7-|3-3-2-5-7-|------7---|
A|1-1-0-3-5-|5-3-5-3/5-|1-1-0-3-5-|0-0-0-5---|
D|----------|----------|----------|0-0-0---0-|

e|----------|----------|----------|------------|
B|----------|----------|----------|------------|
G|----------|----------|----------|------------|
D|3-3-2-5-7-|7-5-7-5/7-|3-3-2-5-7-|------------|
A|1-1-0-3-5-|5-3-5-3/5-|1-1-0-3-5-|0-0-x-x-x-x-|
D|----------|----------|----------|0-0-x-x-x-x-|
Does your husband know the way that the sunshine gleams from your wedding band?
Does he know the way?
Does he know the way of the crickets that would convince me to call it a night?

Guitar for Chorus (You can use acoustic or clean effects)
e|------------|------------|--------------|--------------|
B|1-1-1-1-1---|1-1-1-1-1---|3-3-3-3-3-3---|3-3-3-3-3-3-3-|
G|2-2-2-2-2---|0-0-0-0-0---|2-2-2-2-2-2---|3-3-3-3-3-3-3-|
D|3-3-3-3-3---|2-2-2-2-2---|3---3---3-----|3-3---3---3---|
A|------------|------------|--------------|1-1-----------|
D|3---------3-|2---------2-|0-----------0-|--------------|
But I will never end up like him.
Behind my back I already am.
Keep a calendar, this way you will always know.

Guitars 1 & 2: 2nd Half of Chorus (Repeat 2x with palm mute throughout)
e|----------------|----------------|----------------|----------------|
B|----------------|----------------|----------------|----------------|
G|----------------|----------------|----------------|----------------|
D|----------------|----------------|----------------|----------------|
A|0-0-0-0-0-0-0-0-|2-2-2-2-2-2-2-2-|3-3-3-3-3-3-3-3-|5-5-5-5-5-5-----|
D|0-0-0-0-0-0-0-0-|2-2-2-2-2-2-2-2-|3-3-3-3-3-3-3-3-|5-5-5-5-5-5-7-7-|
The last time you came through, oh darlin’ I know what you’re goin’ through.
The last time you came through, oh darlin’ oh darlin’ oh darlin’.


Guitar 2: Verse 2 (Same as Verse 1)
Guitar 1: Verse 2 (Repeat 3x)
e|------------------------|5-5-5---------------------|
B|5-x-x-5-x-x-5-x-6-x-x-x-|5-5-5-6-x-x-5-x-6-x-6-x-x-|
G|5-x-x-5-x-x-5-x-7-x-x-x-|5-5-5-7-x-x-5-x-7-x-7-x-x-|
D|------------------------|--------------------------|
A|------------------------|--------------------------|
D|------------------------|--------------------------|

Guitar 3: Verse 2 (Starts with Guitar 1 at “Peroxide princess..”)
e|--------------|--------------|------------------|
B|--------------|--------------|------------------|
G|--------------|--------------|------------------|
D|--------3-----|------3-3-3---|--------3---------|
A|3-x-x-3---3-5-|0-x-0-------0-|x-3-3-x---3-x-x-5-|
D|--------------|--------------|------------------|

e|----------------|----------------|------------------|
B|----------------|----------------|------------------|
G|----------------|----------------|----------5-7P5---|
D|----------------|----------------|x-x-----7-------0-|
A|x-x-5-3-3-5-3-5-|1-x-x-1-x-0-3-5-|x-x-0-0-----------|
D|----------------|----------------|------------------|
Tempest In a teacup, get unique.
Peroxide princess shine like shark teeth.
It’s a sign, it’s a sign, it’s a sign.
What if you peaked early?

*The Rhythm for the 2nd verse is really tricky. I suggest listening to one ear phone at 
time until you get it)

Repeat Pre-Chorus 2x
Repeat Chorus
Repeat Pre-Chorus

Guitar 2: Final Chorus (Repeat 4x)
e|----------|--------|
B|----------|--------|
G|----------|--------|
D|------3---|------3-|
A|3-3-2-1---|3-3-2-1-|
D|3-2-0---0-|3-2-0---|

Guitar 1 Solo: Final Chorus (Starts at “The last time you…”)
e|----------------------------------------------------------------------------------------|
B|6-5---------6-5---------6-5---------6-5-------------------10-11-10~10\---10-11-10~------|
G|----7-5---------7-5---------7-5---------7-5---------------------------------------12-10-|
D|--------7-----------7-----------7-7---------7-5-3~5~7~5~3--------------3----------------|
A|----------8-----------8-----------------------------------------------------------------|
D|----------------------------------------------------------------------------------------|

Guitar 3 Solo: Final Chorus (Starts at “…through, oh darlin’”)
e|------------------------------------------------------------------|
B|10-8----10-10-10-10-8----10-----------------10-12-10~-------------|
G|-----10---------------10----10-9-7~8~10~8~7-------------10-12-10~-|
D|------------------------------------------------------------------|
A|-----------------------------------------------------12-----------|
D|------------------------------------------------------------------|

Acoustic Guitar: Final Chorus (Starts with Guitar 2) *PLAYED 1 Step Down! DGCFAD
Chords are: G - D/F# - Em - C
e|3-----0--0--|
B|0--3--0--1--|
G|0--2--0--0--|
D|0--0--2--2--|
A|x--x--2--3--|
D|3--2--0-----|
            
Submit corrections

↑ Back to top | Tablatures and chords for acoustic guitar and electric guitar, ukulele, drums are parodies/interpretations of the original songs. You may use it for private study, scholarship, research or language learning purposes only