» » »

Fall Out Boy - Disloyal Order Of Water Buffaloes Tabs

Artists:  A B C D E F G H I J K L M N O P Q R S T U V W X Y Z # 

Disloyal Order Of Water Buffaloes Tabs

(ver. 3) Click to play this song!
Fall Out Boy
 Rating:
4/5 (4 votes)

 Disloyal Order Of Water Buffaloes lessons Tabs too difficult? Try these video lessons and learn fast
 
                Fall Out Boy
Disloyal Order Of Water Buffaloes

Intro kind of piano..

Gtr1 (0:25-0:58)
e|----------------------------|
B|----------------------------|
G|-7-777-777-777-777----------|X10
D|-7-777-777-777-777----------|
A|-5-555-555-555-444----------|
D|----------------------------|

Gtr2 (0:32-0:58)
e|-----------|
B|-----------|
G|-----------|
D|-0~-7-5~-~-|X4
A|-0~-7-5~-~-|
D|-0~-7-5~-~-|

Gtr1 (0:58-1:12)
e|-------------------------------|
B|-------------------------------|
G|-------------------------------|
D|------7-----7-----7------------|X4
A|--5-5---5-5---5-5---5-5-4-4----|
D|-------------------------------|
    . .   . .   . .   . . 

Gtr2(Clean) (1:12-1:22)
e|------------------------------------------------------------|
B|------------------------------------------------------------|
G|-----4---------6--------7-----------4--------6--------7-----|
D|-------5---------7--------9-----------5--------7--------9~--|X2
A|---5---------7--------9-----------5--------7--------9-------|
D|-5---------7--------9-------9-7-5--------7--------9---------|

Gtr1(1:22-1:25)
e|----------------------------|
B|----------------------------|
G|-7-777-777-777-777----------|X1
D|-7-777-777-777-777----------|
A|-5-555-555-555-444----------|
D|----------------------------|

Both Gtrs 
Chours (1:25-1:52)
e|----------------------------------|
B|----------------------------------|
G|----------------------------------|
D|-000000-555555-999999-777777------|X6
A|-000000-555555-999999-777777------|
D|-000000-555555-999999-777777------|

Gtr1 (1:52-2:15)
e|----------------------------|
B|----------------------------|
G|-7-777-777-777-777----------|X10
D|-7-777-777-777-777----------|
A|-5-555-555-555-444----------|
D|----------------------------|

Gtr2 (1:52-2:15)
e|-----------|
B|-----------|
G|-----------|
D|-0~-7-5~-~-|X4
A|-0~-7-5~-~-|
D|-0~-7-5~-~-|

Gtr1(2:16-2:31)
e|-------------------------------|
B|-------------------------------|
G|-------------------------------|
D|------7-----7-----7------------|X4
A|--5-5---5-5---5-5---5-5-4-4----|
D|-------------------------------|
    . .   . .   . .   . . 
 
Gtr2(Clean) (2:32-2:42)
e|------------------------------------------------------------|
B|------------------------------------------------------------|
G|-----4---------6--------7-----------4--------6--------7-----|
D|-------5---------7--------9-----------5--------7--------9~--|X2
A|---5---------7--------9-----------5--------7--------9-------|
D|-5---------7--------9-------9-7-5--------7--------9---------|


Gtr 2 cont..(2:43-2:46)
e|-----------------------------------|
B|-----------------------------------|
G|-----------------------------------|
D|-555-777-999-111111-121212---------|
A|-555-777-999-111111-121212---------|
D|-555-777-999-111111-121212---------|

(11' not 1')

Both Gtrs
Chours (2:47-3:11)                     (3:11-3:37)
e|----------------------------------|    |-------|
B|----------------------------------|    |-------|
G|----------------------------------|    |-------|
D|-000000-555555-999999-777777------|X6  |-0~~~--|
A|-000000-555555-999999-777777------|    |-0~~~--|
D|-000000-555555-999999-777777------|    |-0~~~--|

BRIDGE
Gtr1 (3:19-3:38)
e|----------------------------|
B|----------------------------|
G|-7-777-777-777-777----------|X6
D|-7-777-777-777-777----------|
A|-5-555-555-555-444----------|
D|----------------------------|

Both Gtrs
Chours (3:39-4:12)
e|----------------------------------|
B|----------------------------------|
G|----------------------------------|
D|-000000-555555-999999-777777------|X6
A|-000000-555555-999999-777777------|
D|-000000-555555-999999-777777------|

Outro
Gtr1 (4:12-4:17)
e|----------------------------|
B|----------------------------|
G|-7-777-777-777-777----------|X4
D|-7-777-777-777-777----------|
A|-5-555-555-555-444----------|
D|----------------------------|
            
Submit corrections


        Disloyal Order Of Water Buffaloes lessons Hard to play? Try these video lessons and learn fast Disloyal Order Of Water Buffaloes lessons
        
↑ Back to top | Tablatures and chords for acoustic guitar and electric guitar, ukulele, drums are parodies/interpretations of the original songs. You may use it for private study, scholarship, research or language learning purposes only