» » »

Fall Out Boy - Disloyal Order Of Water Buffaloes Tabs

Artists:  A B C D E F G H I J K L M N O P Q R S T U V W X Y Z # 

Disloyal Order Of Water Buffaloes Tabs

(ver. 1) Click to play this song!
Fall Out Boy
 Rating:
4/5 (4 votes)

 Disloyal Order Of Water Buffaloes lessons Tabs too difficult? Try these video lessons and learn fast
 
                Intro-

Church Organ- D A/C# Bm G
         A Bb Bm G D   Bm G D


GtrI
|--------------------------------------------------------|
|-7-7-7-7-7-7-7-7-7-7-5-5-5-7-7-7-7-7-7-7-7-7-7-7-5-5-5--|
|-7-7-7-7-7-7-7-7-7-7-7-7-7-7-7-7-7-7-7-7-7-7-7-7-7-7-7--|
|-x-x-x-x-x-x-x-x-x-x-x-x-x-x-x-x-x-x-x-x-x-x-x-x-x-x-x--|3x
|-5-5-5-5-5-5-5-5-5-5-5-5-5-5-5-5-5-5-5-5-5-5-5-5-5-5-5--|
|--------------------------------------------------------|
GtrII
|--------------------------------------------------------|
|--------------------------------------------------------|
|--------------------------------------------------------|
|-0~---7--5~------------0~---7--5~-----------------------|
|-0~---7--5~------------0~---7--5~-----------------------|
|-0~---7--5~------------0~---7--5~-----------------------|

Verse-
GtrI
|--------------------------------------------------------|
|-7-7-7-7-7-7-7-7-7-7-5-5-5-7-7-7-7-7-7-7-7-7-7-7-5-5-5--|
|-7-7-7-7-7-7-7-7-7-7-7-7-7-7-7-7-7-7-7-7-7-7-7-7-7-7-7--|
|-x-x-x-x-x-x-x-x-x-x-x-x-x-x-x-x-x-x-x-x-x-x-x-x-x-x-x--|2x
|-5-5-5-5-5-5-5-5-5-5-5-5-5-5-5-5-5-5-5-5-5-5-5-5-5-5-5--|
|--------------------------------------------------------|
GtrII
|--------------------------------------------------------|
|--------------------------------------------------------|
|--------------------------------------------------------|
|-0~---7--5~------------0~---7--5~-----------------------|
|-0~---7--5~------------0~---7--5~-----------------------|
|-0~---7--5~------------0~---7--5~-----------------------|

Refrain-

|------------------------------------------------------|
|------------------------------------------------------|
|------------------------------------------------------|
|----77----77----77-----77----77----77----77-----77----|
|-99----77----77-----55-----99---77----77-----55-------|
|-99----------77-----00-----99---------77-----00-------|
  **    **    **     **     **   **    **     ** 

|------------------------------------------------------|
|------------------------------------------------------|
|------------------------------------------------------|
|----77----77----77-----77----77----77-----------------|
|-99----77----77-----55-----99---77----77777777--------|
|-99----------77------------99---------77777777--------|
  **    **    **     **     **   **    ********

GtrII
|----------------------------------------------|
|----------------------------------------------|
|----------------------------------------------|
|-9999-2222-7777-0000--9999-2222-7777-0000-----|
|-9999-2222-7777-0000--9999-2222-7777-0000-----|
|-9999-2222-7777-0000--9999-2222-7777-0000-----|

|----------------------------------------------|
|----------------------------------------------|
|----------------------------------------------|
|-9999-2222-7777-0000--9999-2222-7777-7777-----|
|-9999-2222-7777-0000--9999-2222-7777-7777-----|
|-9999-2222-7777-0000--9999-2222-7777-7777-----|


Refrain2-


GtrI
|--------------------------------------------------------|--------------------|
|--------------------------------------------------------|-77-777-777-777-555-|
|-----4~-----6~-----7~--9p7-9p7--9/11--9s--4~-6~-7~-6~---|-77-777-777-777-777--|
|-----5~-----7~-----9~-----------------------------------|-xx-xxx-xxx-xxx-xxx--|
|---5------7------9--------------------------------------|-55-555-555-555-555--|
|-5------7------9----------------------------------------|--------------------| 

GtrII not sure
|--------------------------------------------------------|
|--------------------------------------------------------|
|-----4~-----6~-----7-------7~-----4-----6~--------------|
|-----4~-----7~-----9~-----9-------4----7---9--7---5~----|
|---5---5--7---7---9--9---9------5-----7----9--7---5~----|
|-5------7-------9------9------5------7-----9--7---5~----|


Chorus-
|------------------------------------------------------------------|
|------------------------------------------------------------------|
|------------------------------------------------------------------|
|-0-0-0-0-5-5-5-5-9-9-9-9-7-7-7-7--0-0-0-0-5-5-5-5-9-9-9-9-7-7-7-7-|
|-0-0-0-0-5-5-5-5-9-9-9-9-7-7-7-7--0-0-0-0-5-5-5-5-9-9-9-9-7-7-7-7-|
|-0-0-0-0-5-5-5-5-9-9-9-9-7-7-7-7--0-0-0-0-5-5-5-5-9-9-9-9-7-7-7-7-|

|-------------------------------------------------------------------|
|-------------------------------------------------------------------|
|-------------------------------------------------------------------|
|-0-0-0-0-5-5-5-5-9-9-9-9-7-7-7-7--4-4-4-4-5-5-5-5-9-9-9-9-7-7-7-7--|
|-0-0-0-0-5-5-5-5-9-9-9-9-7-7-7-7--4-4-4-4-5-5-5-5-9-9-9-9-7-7-7-7--|
|-0-0-0-0-5-5-5-5-9-9-9-9-7-7-7-7--4-4-4-4-5-5-5-5-9-9-9-9-7-7-7-7--|

Gtr?not sure

|----------------------------------------------------|
|-7-7-7-8-8-5-5-7-7-5-5--7-7-7-8-8-5-5-7-7-5-5-------|
|----------------------------------------------------|
|----------------------------------------------------|
|----------------------------------------------------|
|----------------------------------------------------|

then

GtrI
|--------------------------------------------------------|
|-7-7-7-7-7-7-7-7-7-7-5-5-5-7-7-7-7-7-7-7-7-7-7-7-5-5-5--|
|-7-7-7-7-7-7-7-7-7-7-7-7-7-7-7-7-7-7-7-7-7-7-7-7-7-7-7--|
|-x-x-x-x-x-x-x-x-x-x-x-x-x-x-x-x-x-x-x-x-x-x-x-x-x-x-x--|2x
|-5-5-5-5-5-5-5-5-5-5-5-5-5-5-5-5-5-5-5-5-5-5-5-5-5-5-5--|
|--------------------------------------------------------|
GtrII
|--------------------------------------------------------|
|--------------------------------------------------------|
|--------------------------------------------------------|
|-0~---7--5~------------0~---7--5~-----------------------|
|-0~---7--5~------------0~---7--5~-----------------------|
|-0~---7--5~------------0~---7--5~-----------------------|

Do verse- Refrain 

end of refrain2
|------------------------------------|
|------------------------------------|
|------------------------------------|
|-5-5-5-5-7-7-7-7-9-9-9-1111-12-12---|
|-5-5-5-5-7-7-7-7-9-9-9-1111-12-12---|
|-5-5-5-5-7-7-7-7-9-9-9-1111-12-12---|

Do Chorus

3:13
GtrI
|--------------------------------------------------------|
|-7-7-7-7-7-7-7-7-7-7-5-5-5-7-7-7-7-7-7-7-7-7-7-7-5-5-5--|
|-7-7-7-7-7-7-7-7-7-7-7-7-7-7-7-7-7-7-7-7-7-7-7-7-7-7-7--|4x
|-x-x-x-x-x-x-x-x-x-x-x-x-x-x-x-x-x-x-x-x-x-x-x-x-x-x-x--|
|-5-5-5-5-5-5-5-5-5-5-5-5-5-5-5-5-5-5-5-5-5-5-5-5-5-5-5--|
|--------------------------------------------------------|

GtrII
|--------------------------------------------------------|
|--------------------------------------------------------|
|--------------------------------------------------------|4x
|-0~---------------------0~------------------------------|
|-0~---------------------0~------------------------------|
|-0~---------------------0~------------------------------|


Do chorus-
end with
|----------------------------------|
|----------------------------------|
|----------------------------------|
|-4-4-4-4-5-5-5-5-9-9-9-9-7-7-7-7--|
|-4-4-4-4-5-5-5-5-9-9-9-9-7-7-7-7--|
|-4-4-4-4-5-5-5-5-9-9-9-9-7-7-7-7--|


end with
GtrI
|--------------------------------------------------------|
|-7-7-7-7-7-7-7-7-7-7-5-5-5-7-7-7-7-7-7-7-7-7-7-7-5-5-5--|
|-7-7-7-7-7-7-7-7-7-7-7-7-7-7-7-7-7-7-7-7-7-7-7-7-7-7-7--|
|-x-x-x-x-x-x-x-x-x-x-x-x-x-x-x-x-x-x-x-x-x-x-x-x-x-x-x--|
|-5-5-5-5-5-5-5-5-5-5-5-5-5-5-5-5-5-5-5-5-5-5-5-5-5-5-5--|
|--------------------------------------------------------|

GtrII
|--------------------------------------------------------|
|--------------------------------------------------------|
|--------------------------------------------------------|
|-0~---------------------0~------------------------------|
|-0~---------------------0~------------------------------|
|-0~---------------------0~------------------------------|
            
Submit corrections


        Disloyal Order Of Water Buffaloes lessons Hard to play? Try these video lessons and learn fast Disloyal Order Of Water Buffaloes lessons
        
↑ Back to top | Tablatures and chords for acoustic guitar and electric guitar, ukulele, drums are parodies/interpretations of the original songs. You may use it for private study, scholarship, research or language learning purposes only