» » »

Fall Out Boy - Centuries Tabs

Artists:  A B C D E F G H I J K L M N O P Q R S T U V W X Y Z # 

Centuries Tabs

(ver. 4) Click to play this song!
Fall Out Boy
 Rating:
4.3/5 (23 votes)

 Centuries  lessons Tabs too difficult? Try these video lessons and learn fast
 
                [Intro]
e|---------------------------------------------------------------------------|
B|-------0--------0----0--------0--------------------------------------------|
G|-----0--------0---------2-0-2---2-0----------------------------------------|
D|-2-4------2-4------2-------------------------------------------------------|
A|---------------------------------------------------------------------------|
E|---------------------------------------------------------------------------|

Em
Some legends are told
G
Some turn to dust or to gold
C
But you will remember me
Am              D
Remember me for centuries
Em
And just one mistake
G
Is all it will take
C
We'll go down in history
Am              D
Remember me for centuries
 
e|-7-------------------------------3-----------------------------------------|
B|---------------------------------------------------------------------------|
G|---------------------------------------------------------------------------|
D|---------------------------------------------------------------------------|
A|---------------------------------------------------------------------------|
E|-0-------------------------------3-----------------------------------------|
Mummified my teenage dreams        No there's nothing wrong with me

e|-5-------------------------------3-----------------------------------------|
B|---------------------------------------------------------------------------|
G|---------------------------------------------------------------------------|
D|---------------------------------------------------------------------------|
A|---------------------------------------------------------------------------|
E|-0-------------------------------3-----------------------------------------|
The kids are all wrong             The story's all off

[Chorus]
e|-5-------------------------------3-----------------------------------------|
B|---------------------------------------------------------------------------|
G|---------------------------------------------------------------------------|
D|---------------------------------------------------------------------------|
A|---------------------------------------------------------------------------|
E|-0-------------------------------0-----------------------------------------|
Heavy metal broke my   (bang bang) Heart

e|-5/7-5/7-----------3--------------5---------------------------------3-------|
B|----------------------------------------------------------------------------|
G|----------------------------------------------------------------------------|
D|----------------------------------------------------------------------------|
A|----------------------------------------------------------------------------|
E|-0-----------------3--------------0---------------------------------0-----3-|
Come on come on and let me in      The bruises on your thighs like my fingertip

e|-5--------------------------------3----------------------------------------|
B|---------------------------------------------------------------------------|
G|---------------------------------------------------------------------------|
D|---------------------------------------------------------------------------|
A|---------------------------------------------------------------------------|
E|-0--------------------------------3----------------------------------------|
and this is for tonight            I though tht you would feel

e|---------------------------------------------------------------------------|
B|---------------------------------------------------------------------------|
G|---------------------------------------------------------------------------|
D|---------------------------------------------------------------------------|
A|---------------------------------------------------------------------------|
E|---------------------------------------------------------------------------|
I never meant for you to fix yourself 

e|---------------------------------------------------------------------------|
B|-------0--------0----0--------0--------------------------------------------|
G|-----0--------0---------2-0-2---2-0----------------------------------------|
D|-2-4------2-4------2-------------------------------------------------------|
A|---------------------------------------------------------------------------|
E|---------------------------------------------------------------------------|

Em
Some legends are told
G
Some turn to dust or to gold
C
But you will remember me
Am              D
Remember me for centuries
Em
And just one mistake
G
Is all it will take
C
We'll go down in history
Am              D
Remember me for centuries
(same chords for the heeyy ya oh yeahahah)
Am              D
Remember me for centuries

e|------------7--------------------------------------------------------------|
B|---------------------------------------------------------------------------|
G|---------------------------------------------------------------------------|
D|---------------------------------------------------------------------------|
A|---------------------------------------------------------------------------|
E|------------0--------------------------------------------------------------|
And I can't stop till the whole world knows my name

e|-3--------------------------------------------------------------------------|
B|---------------------------------------------------------------------------|
G|---------------------------------------------------------------------------|
D|---------------------------------------------------------------------------|
A|---------------------------------------------------------------------------|
E|-3--------------------------------------------------------------------------|
Cause I was only born inside my dreams

e|-5-5/7-----------------------------3---------------------------------------|
B|---------------------------------------------------------------------------|
G|---------------------------------------------------------------------------|
D|---------------------------------------------------------------------------|
A|---------------------------------------------------------------------------|
E|-0-0-------------------------------3---------------------------------------|
Until you die for me                as long as there's a light

e|-5-----------------------3---------0---------------------------------------|
B|---------------------------------------------------------------------------|
G|---------------------------------------------------------------------------|
D|---------------------------------------------------------------------------|
A|---------------------------------------------------------------------------|
E|-0-----------------------3---------0---------------------------------------|
My shadow's over you cause I-I am   the opposie of amnesia

e|-7---------------------------------3---------------------------------------|
B|---------------------------------------------------------------------------|
G|---------------------------------------------------------------------------|
D|---------------------------------------------------------------------------|
A|---------------------------------------------------------------------------|
E|-0---------------------------------3---------------------------------------|
You're my cherry blossom            you're about to bloom

e|-5--------------------------------------------------------------------------|
B|---------------------------------------------------------------------------|
G|---------------------------------------------------------------------------|
D|---------------------------------------------------------------------------|
A|---------------------------------------------------------------------------|
E|-0--------------------------------------------------------------------------|
You look so pretty but you go so soon

e|---------------------------------------------------------------------------|
B|-------0--------0----0--------0--------------------------------------------|
G|-----0--------0---------2-0-2---2-0----------------------------------------|
D|-2-4------2-4------2-------------------------------------------------------|
A|---------------------------------------------------------------------------|
E|---------------------------------------------------------------------------|

Em
Some legends are told
G
Some turn to dust or to gold
C
But you will remember me
Am              D
Remember me for centuries
Em
And just one mistake
G
Is all it will take
C
We'll go down in history
Am              D
Remember me for centuries
(same chords for the heeyy ya oh yeahahah)
Am              D
Remember me for centuries

e|-0--------------3---------------5----------------=--3----------------------|
B|---------------------------------------------------------------------------|
G|---------------------------------------------------------------------------|
D|---------------------------------------------------------------------------|
A|---------------------------------------------------------------------------|
E|-0--------------3---------------0-------------------0----------------------|
We've been here   forever and    here's the frozen    proof

e|-0-0-0-0-----------3-3-3-3--------------5-5-5-5-------------------3--------|
B|---------------------------------------------------------------------------|
G|---------------------------------------------------------------------------|
D|---------------------------------------------------------------------------|
A|---------------------------------------------------------------------------|
E|-0-0-0-0-----------3-3-3-3--------------0-0-0-0-------------------0--------|
I... could scream    forever we           are the poision           youth

Em
Some legends are told
G
Some turn to dust or to gold
C
But you will remember me
Am              D
Remember me for centuries
Em
And just one mistake
G
Is all it will take
C
We'll go down in history
Am              D
Remember me for centuries
(same chords for the heeyy ya oh yeahahah)
Am              D
Remember me for centuries

(If you want to pluck the chorus it goes like this:)
e|-3-2-0-0--0-----3-2-0-0--0-0-0-0-7-7----0--0-7-7---0-7-7-------------------|
B|---------0---0-----------------------0---0-------0-------------------------|
G|---------------------------------------------------------------------------|
D|---------------------------------------------------------------------------|
A|---------------------------------------------------------------------------|
E|-0--------------0----------------------------------------------------------|
            
Submit corrections


        Centuries  lessons Hard to play? Try these video lessons and learn fast Centuries  lessons
        
↑ Back to top | Tablatures and chords for acoustic guitar and electric guitar, ukulele, drums are parodies/interpretations of the original songs. You may use it for private study, scholarship, research or language learning purposes only