» » »

Fall Out Boy - Centuries Tabs

Artists:  A B C D E F G H I J K L M N O P Q R S T U V W X Y Z # 

Centuries Tabs

(ver. 1) Click to play this song!
Fall Out Boy
 Rating:
4/5 (4 votes)

 Centuries  lessons Tabs too difficult? Try these video lessons and learn fast
 
                Tuning:EADGBE

e|------------------------------------------------------------------------|
B|----------------------------------------------~-------------------------|
G|-----------4-------------4-----4--2--0--2--0--2-------------4-----------|
D|-2--4--5-------2--4--5------2---------------------2--4--5------2--4--5--|
A|------------------------------------------------------------------------|
E|------------------------------------------------------------------------|

e|-------------------------------------------------------------------------------------|
B|-------------------------------------------------------------------------------------|
G|---4-----4--2--0--2--0--2--0---------------------------------------------------------|
D|------2------------------------------------------------------------------------------|
A|-------------------------------------------------------------------------------------|
E|-------------------------------------------------------------------------------------|

e|---0--3--2--0--0----0-0-0--3--2--0--0---0--0--0--0--7--7-------0---7---7--|
B|-----------------------------------------------------------3--------------|
G|--------------------------------------------------------------------------|
D|--------------------------------------------------------------------------|
A|--------------------------------------------------------------------------|
E|--------------------------------------------------------------------------|

e|-------0---7-----7--------------7--7--3--5--3--3p--0--|
B|---3--------------------------------------------------|
G|------------------------------------------------------|
D|------------------------------------------------------|
A|------------------------------------------------------|
E|------------------------------------------------------|
            
Submit corrections


        Centuries  lessons Hard to play? Try these video lessons and learn fast Centuries  lessons
        
↑ Back to top | Tablatures and chords for acoustic guitar and electric guitar, ukulele, drums are parodies/interpretations of the original songs. You may use it for private study, scholarship, research or language learning purposes only