» » »

Everything Everything - Run The Numbers Acoustic Tabs

Artists:  A B C D E F G H I J K L M N O P Q R S T U V W X Y Z # 

Run The Numbers Acoustic Tabs

(ver. 2) Click to play this song!
Everything Everything
 Rating:
4.3/5 (12 votes)

 Run The Numbers Acoustic lessons Tabs too difficult? Try these video lessons and learn fast
 
                [Verse]
Some folks sleep with their heads on the...
e|------------------------|-------------------------|
B|------------------------|-------------------------|
G|-------10------10-------|--------3--------3-------|
D|-----0-------0--------0-|-----0--------0--------0-|
A|------------------------|-------------------------|
D|-12-------12------12----|--5--------5--------5----|
                        x2                        x2
Talk about a rat king, talk about...
e|------------------------|-------------------------|
B|------------------------|-------------------------|
G|-------10------10-------|--------9--------9-------|
D|-----0-------0--------0-|-----0--------0--------0-|
A|------------------------|-------------------------|
D|-12-------12------12----|-10-------10-------10----|
                        x2                        x2
The corridors of power are
e|------------------------|-------------------------|
B|------------------------|-------------------------|
G|--------7-------7-------|--------0--------0-------|
D|-----0-------0--------0-|-----3--------3--------3-|
A|------------------------|-------------------------|
D|--9--------9-------9----|--0--------0--------0----|

echoing with something for
e|------------------------|-------------------------|
B|------------------------|-------------------------|
G|-------14------14-------|-------12-------12-------|
D|-----0-------0--------0-|-----0--------0--------0-|
A|------------------------|-------------------------|
D|-15-------15------15----|-14-------14-------14----|

everyone.-                  There's nothing there for you
e|------------------------|-------------------------|
B|------------------------|-------------------------|
G|-------10------10-------|--------0--------0-------|
D|-----0-------0--------0-|-----3--------3--------3-|
A|------------------------|-------------------------|
D|-12-------12------12----|--0--------0--------0----|

And there's nothing there for me
e|------------------------|-------------------------|
B|------------------------|-------------------------|
G|--------9-------9-------|--------3--------3-------|
D|-----0-------0--------0-|-----0--------0--------0-|
A|------------------------|-------------------------|
D|-10-------10------10----|--5--------5--------5----|

[Pre-Chorus]
I don't need to run the numbers...
e|----------------------------|
B|----------------------------|
G|----------------------------|
D|-----0--------------0-----0-|
A|----------------------------|
E|--3-----3--7-5-3-0-----0----|            
Submit corrections


        Run The Numbers Acoustic lessons Hard to play? Try these video lessons and learn fast Run The Numbers Acoustic lessons
        
↑ Back to top | Tablatures and chords for acoustic guitar and electric guitar, ukulele, drums are parodies/interpretations of the original songs. You may use it for private study, scholarship, research or language learning purposes only