» » »

Everything Everything - Run The Numbers Tabs

Artists:  A B C D E F G H I J K L M N O P Q R S T U V W X Y Z # 

Run The Numbers Tabs

(ver. 1) Click to play this song!
Everything Everything
 Rating:
4.3/5 (18 votes)

 Run The Numbers lessons Tabs too difficult? Try these video lessons and learn fast
 
                
[Chorus 1]
e|-------------------|-------------------|-------------------|-------------------|
B|-------------------|-------------------|-------------------|-------------------|
G|-------------------|-------------------|-------------------|-------------------|
D|-------------------|-------------------|-------------------|-------------------|
A|-------------------|-------------------|-------------------|-------------------|
D|-3-----7-5-0-------|-3-----7-5-0---6---|-3-----7-5-0-------|-3-----7-5-0---7---|

e|--------------13----------------15-|--------------17----------------13-|--------------15-------------------|
B|-13----------------13--------------|-13----------------13--------------|-13----------------13--------------|
G|----14b15br14---------14b15br14----|----14b15br14---------14b15br14----|----14b15br14---------14b15br14----|
D|-----------------------------------|-----------------------------------|--------------------------------15-|
A|-----------------------------------|-----------------------------------|-----------------------------------|
D|-----------------------------------|-----------------------------------|-----------------------------------|

e|--------------13----------------15-|--------------17----------------13-|--------------15-------------------|
B|-13----------------13--------------|-13----------------13--------------|-13----------------13--------------|
G|----14b15br14---------14b15br14----|----14b15br14---------14b15br14----|----14b15br14---------14b15br14----|
D|-----------------------------------|-----------------------------------|--------------------------------15-|
A|-----------------------------------|-----------------------------------|-----------------------------------|
D|-----------------------------------|-----------------------------------|-----------------------------------|

[Verse 2] (halfway through):
e|----------|-------------------------------------|----------------------------------------|
B|----------|-------------------------------------|----------------------------------------|
G|----------|------7------------------------------|----------14---------------12-----------|
D|----------|----------------------------0--------|--------------12--0---------------------|
A|----------|---------------------8/10------------|----------------------------------------|
D|-15-15-15-|-15\-----8--8-0-0--------------17-17-|-17\15-15-----------14--14-----17-17-17-|

e|--------------------------------|-----------------------------------|
B|--------------------------------|-----------------------------------|
G|-------7------------------------|----------9--9----9---3---3--3-----|
D|------------------------0-------|-----------------------------------|
A|--------------------8-----------|-----------------------------------|
D|-17\\-----8--8-0-0--------15-15-|-15\10-10------10---5---5------5-0-|

[Chorus 2]
e|-------------------|-------------------|-------------------|-------------------|
B|-------------------|-------------------|-------------------|-------------------|
G|-------------------|-------------------|-------------------|-------------------|
D|-------------------|-------------------|-------------------|-------------------|
A|-------------------|-------------------|-------------------|-------------------|
D|-3-----7-5-0-------|-3-----7-5-0---6---|-3-----7-5-0-------|-3-----7-5-0---7---|

e|--------------13----------------15-|--------------17----------------13-|--------------15-------------------|
B|-13----------------13--------------|-13----------------13--------------|-13----------------13--------------|
G|----14b15br14---------14b15br14----|----14b15br14---------14b15br14----|----14b15br14---------14b15br14----|
D|-----------------------------------|-----------------------------------|--------------------------------15-|
A|-----------------------------------|-----------------------------------|-----------------------------------|
D|-----------------------------------|-----------------------------------|-----------------------------------|

e|--------------13----------------15-|--------------17----------------13-|--------------15-------------------|
B|-13----------------13--------------|-13----------------13--------------|-13----------------13--------------|
G|----14b15br14---------14b15br14----|----14b15br14---------14b15br14----|----14b15br14---------14b15br14----|
D|-----------------------------------|-----------------------------------|--------------------------------15-|
A|-----------------------------------|-----------------------------------|-----------------------------------|
D|-----------------------------------|-----------------------------------|-----------------------------------|

[Bridge]
e|-------------------|----------------------|-------------------|-------------------|
B|-------------------|----------------------|-------------------|-------------------|
G|-------------------|----------------------|-------------------|-------------------|
D|-------------------|----------------------|-------------------|-------------------|   (Only left panned
A|-------------------|------------(5-5-5-5)-|-------------------|-------------------|   guitar plays
D|-3-----7-5-0-------|-3-----7-5-0---6------|-3-----7-5-0-------|-3-----7-5-0---7---|   part in brackets)

e|-------------------|-------------------|-------------------|-------------------|
B|-------------------|-------------------|-------------------|-------------------|
G|-------------------|-------------------|-------------------|-------------------|
D|-------------------|-------------------|-------------------|-------------------|
A|-------------------|-------------------|-------------------|-------------------|
D|-8-----7-5-0-------|-8-----7-5-4---4---|-3-----7-5-0-------|-3-----7-5-0---7---|

[Guitar Solo] 
(just trip over your effects pedal for 3 bars)

[Chorus 3]
e|--------------13----------------15-|--------------17----------------13-|--------------15----------------17-|
B|-13----------------13--------------|-13----------------13--------------|-13----------------13--------------|
G|----14b15br14---------14b15br14----|----14b15br14---------14b15br14----|----14b15br14---------14b15br14----|
D|-----------------------------------|-----------------------------------|-----------------------------------|
A|-----------------------------------|-----------------------------------|-----------------------------------|
D|-----------------------------------|-----------------------------------|-----------------------------------|

e|--------------13----------------15-|--------------17----------------13-|--------------15-------------------|
B|-13----------------13--------------|-13----------------13--------------|-13----------------13--------------|
G|----14b15br14---------14b15br14----|----14b15br14---------14b15br14----|----14b15br14----------15(tr)------|
D|-----------------------------------|-----------------------------------|-----------------------------------|
A|-----------------------------------|-----------------------------------|-----------------------------------|
D|-----------------------------------|-----------------------------------|-----------------------------------|

e|-------------------|-------------------|-------------------|-------------------|
B|-------------------|-------------------|-------------------|-------------------|
G|-------------------|-------------------|-------------------|-------------------|
D|-------------------|-------------------|-------------------|-------------------|
A|-------------------|-------------------|-------------------|-------------------|
D|-3-----7-5-0-------|-3-----7-5-0---6---|-3-----7-5-0-------|-3-----7-5-0---7---|

e|-------------------|-------------------|-------------------|-------------------|
B|-------------------|-------------------|-------------------|-------------------|
G|-------------------|-------------------|-------------------|-------------------|
D|-------------------|-------------------|-------------------|-------------------|
A|-------------------|-------------------|-------------------|-------------------|
D|-8-----7-5-0-------|-8-----7-5-4-------|-3-----7-5-0-------|-3-----7-5-0---6---|            
Submit corrections


        Run The Numbers lessons Hard to play? Try these video lessons and learn fast Run The Numbers lessons
        
↑ Back to top | Tablatures and chords for acoustic guitar and electric guitar, ukulele, drums are parodies/interpretations of the original songs. You may use it for private study, scholarship, research or language learning purposes only