» » »

Everything Everything - Distant Past Tabs

Artists:  A B C D E F G H I J K L M N O P Q R S T U V W X Y Z # 

Distant Past Tabs

(ver. 2) Click to play this song!
Everything Everything
 Rating:
4.4/5 (17 votes)

 Distant Past  lessons Tabs too difficult? Try these video lessons and learn fast
 
                [Intro]

e|--------------------------------------------------------|
B|--------------------------------------------------------|
G|--------------------------------------------------------|
D|--------------------------------------------------------|
A|--0-----------------------------------------------------|
D|-------0--2-----------0--2-/-4--5------4--5-/-9---------|


[Verse] 

(nothing played)

e|--------------------------------------------------------|
B|--------------------------------------------------------|
G|--------------------------------------------------------|
D|--------------------------------------------------------|
A|--------------------------------------------------------|
D|--------------------------------------------------------|


[Pre-chorus]

e|--------------------------------------------------------|
B|--------------------------------------------------------|
G|--------6---------------------7-------------------------|
D|------------------------------------4-------------------|  x2
A|---7----------------------------------------------------|
D|--------------------------------------------------------|


[Chorus]

(Guitar I)

e|--7----7----7---9---9---10---10---10---10--10-----------|
B|--8----8----8---10--10--12---12---12---10--10-----------|
G|--9----9----9---11--11--12---12---12---9---9------------|
D|--------------------------------------------------------|
A|--------------------------------------------------------|
D|--------------------------------------------------------|

e|--9----9----9---9---9-----------------------------------|
B|--10---10---10--10--10--12---12---12---12--12-----------|
G|--9----9----9---11--11--9----9----9----12--12-----------| (both bars x2)
D|--------------------------------------------------------|
A|--------------------------------------------------------|
D|--------------------------------------------------------|


e|--------------------------------------------------------|
B|--------------------------------------------------------|
G|--4----4----4---6---6---7----7----7----7---7------------|
D|--5----5----5---7---7---9----9----9----7---7------------|
A|--7----7----7---9---9---10---10---10---7---7------------|
D|--------------------------------------------------------|

e|--------------------------------------------------------|
B|--------------------------------------------------------|
G|--6----6----6---6---6-----------------------------------|
D|--7----7----7---7---7---9----9----9----12--12-----------| (both bars x2)
A|--7----7----7---9---9---10---10---10---10--10-----------|
D|--------------------------------------------------------|


[Chorus] 

(Guitar II)

e|--------------------------------------------------------|
B|--0----0----0---2---2---3----3----3----3---3------------|
G|--------------------------------------------------------|
D|--------------------------------------------------------|
A|--------------------------------------------------------|
D|--------------------------------------------------------|

e|--------------------------------------------------------|
B|--2----2----2---2---2---3----3----3----3---3------------|
G|--------------------------------------------------------|
D|--------------------------------------------------------| (both bars x4)
A|--------------------------------------------------------|
D|--------------------------------------------------------|


[Post-Chorus]

e|--------------------------------------------------------|
B|--------------------------------------------------------|
G|-------------2---2p0------------------------------------|
D|--------------------4-----------------------------------|
A|--0-----------------------------------------------------|
D|-------0--2-------------0--2-/-4--5------4--5-/-9-------|


[Verse 2] 

(nothing played)

e|--------------------------------------------------------|
B|--------------------------------------------------------|
G|--------------------------------------------------------|
D|--------------------------------------------------------|
A|--------------------------------------------------------|
D|--------------------------------------------------------|


[Pre-chorus 2]

e|--------------------------------------------------------|
B|--------------------------------------------------------|
G|--------6---------------------7-------------------------|
D|------------------------------------4-------------------|  x2
A|---7----------------------------------------------------|
D|--------------------------------------------------------|


[Chorus 2] 

(Guitar I)

e|--7----7----7---9---9---10---10---10---10--10-----------|
B|--8----8----8---10--10--12---12---12---10--10-----------|
G|--9----9----9---11--11--12---12---12---9---9------------|
D|--------------------------------------------------------|
A|--------------------------------------------------------|
D|--------------------------------------------------------|

e|--9----9----9---9---9-----------------------------------|
B|--10---10---10--10--10--12---12---12---12--12-----------|
G|--9----9----9---11--11--9----9----9----12--12-----------| (both bars x2)
D|--------------------------------------------------------|
A|--------------------------------------------------------|
D|--------------------------------------------------------|


e|--------------------------------------------------------|
B|--------------------------------------------------------|
G|--4----4----4---6---6---7----7----7----7---7------------|
D|--5----5----5---7---7---9----9----9----7---7------------|
A|--7----7----7---9---9---10---10---10---7---7------------|
D|--------------------------------------------------------|

e|--------------------------------------------------------|
B|--------------------------------------------------------|
G|--6----6----6---6---6-----------------------------------|
D|--7----7----7---7---7---9----9----9----12--12-----------| (both bars x2)
A|--7----7----7---9---9---10---10---10---10--10-----------|
D|--------------------------------------------------------|


[Chorus 2] 

(Guitar II)

e|--------------------------------------------------------|
B|--0----0----0---2---2---3----3----3----3---3------------|
G|--------------------------------------------------------|
D|--------------------------------------------------------|
A|--------------------------------------------------------|
D|--------------------------------------------------------|

e|--------------------------------------------------------|
B|--2----2----2---2---2---3----3----3----3---3------------|
G|--------------------------------------------------------|
D|--------------------------------------------------------| (both bars x4)
A|--------------------------------------------------------|
D|--------------------------------------------------------|


[Bridge]

e|--------------------------------------------------------|
B|--------------------------------------------------------|
G|-------------2------------------------------------------|
D|--------------------------------------------------------|
A|--0-----------------------------------------------------|
D|-------0--2-------------0--2-/-4--5------4--5-/-9-------|

e|--------------------------------------------------------|
B|--------------------------------------------------------|
G|-------------2---2p0------------------------------------|
D|--------------------4-----------------------------------|
A|--0-----------------------------------------------------|
D|-------0--2-------------0--2-/-4--5------4--5-/-9-------|


[Pre-chorus 3] 

(Guitar II)

PM----------------------------------------------|
e|--------------------------------------------------------|
B|--12---12---12--14--14---15---15---15---15--15----------|
G|--12---12---12--12--12---12---12---12---12--12----------|
D|--------------------------------------------------------|
A|--------------------------------------------------------|
D|--------------------------------------------------------|

PM----------------------------------------------|
e|--------------------------------------------------------|
B|--14---14---14--14--14---12---12---12---14--14----------|
G|--12---12---12--12--12---12---12---12---12--12----------|
D|--------------------------------------------------------| 
A|--------------------------------------------------------|
D|--------------------------------------------------------|

PM----------------------------------------------|
e|--------------------------------------------------------|
B|--15---15---15--15--15---14---14---14---14--14----------|
G|--12---12---12--12--12---12---12---12---12--12----------|
D|--------------------------------------------------------| 
A|--------------------------------------------------------|
D|--------------------------------------------------------|


[Chorus 3] 

(Guitar I)

e|--7----7----7---9---9---10---10---10---10--10-----------|
B|--8----8----8---10--10--12---12---12---10--10-----------|
G|--9----9----9---11--11--12---12---12---9---9------------|
D|--------------------------------------------------------|
A|--------------------------------------------------------|
D|--------------------------------------------------------|

e|--9----9----9---9---9-----------------------------------|
B|--10---10---10--10--10--12---12---12---12--12-----------|
G|--9----9----9---11--11--9----9----9----12--12-----------| (both bars x2)
D|--------------------------------------------------------|
A|--------------------------------------------------------|
D|--------------------------------------------------------|


e|--------------------------------------------------------|
B|--------------------------------------------------------|
G|--4----4----4---6---6---7----7----7----7---7------------|
D|--5----5----5---7---7---9----9----9----7---7------------|
A|--7----7----7---9---9---10---10---10---7---7------------|
D|--------------------------------------------------------|

e|--------------------------------------------------------|
B|--------------------------------------------------------|
G|--6----6----6---6---6-----------------------------------|
D|--7----7----7---7---7---9----9----9----12--12-----------| (both bars x2)
A|--7----7----7---9---9---10---10---10---10--10-----------|
D|--------------------------------------------------------|


[Chorus 3] 

(Guitar II)

e|--------------------------------------------------------|
B|--12---12---12--14--14---15---15---15---15--15----------|
G|--12---12---12--12--12---12---12---12---12--12----------|
D|--------------------------------------------------------|
A|--------------------------------------------------------|
D|--------------------------------------------------------|

e|--------------------------------------------------------|
B|--14---14---14--14--14---15---15---15---15--15----------|
G|--12---12---12--12--12---12---12---12---12--12----------|
D|--------------------------------------------------------| (both bars x4)
A|--------------------------------------------------------|
D|--------------------------------------------------------|


[Outro/chorus] 

(Guitar I)

e|--------------------------------------------------------|
B|--------------------------------------------------------|
G|--4----4----4---6---6---7----7----7----7---7------------|
D|--5----5----5---7---7---9----9----9----7---7------------|
A|--7----7----7---9---9---10---10---10---7---7------------|
D|--------------------------------------------------------|

e|--------------------------------------------------------|
B|--------------------------------------------------------|
G|--6----6----6---6---6-----------------------------------|
D|--7----7----7---7---7---9----9----9----12--12-----------| (both bars x2)
A|--7----7----7---9---9---10---10---10---10--10-----------|
D|--------------------------------------------------------|

(Guitar II)

e|--------------------------------------------------------|
B|--12---12---12--14--14---15---15---15---15--15----------|
G|--12---12---12--12--12---12---12---12---12--12----------|
D|--------------------------------------------------------|
A|--------------------------------------------------------|
D|--------------------------------------------------------|


e|--------------------------------------------------------|
B|--14---14---14--14--14---15---15---15---15--15----------|
G|--12---12---12--12--12---12---12---12---12--12----------|
D|--------------------------------------------------------| (both bars x2)
A|--------------------------------------------------------|
D|--------------------------------------------------------|

(Guitar III)

e|--------------------------------------------------------|
B|--------------------------------------------------------|
G|---14-12---14-12---14-12---14-12----14---12-------------|
D|--------------------------------------------------------| (x2)
A|--------------------------------------------------------|
D|--------------------------------------------------------|            
Submit corrections


        Distant Past  lessons Hard to play? Try these video lessons and learn fast Distant Past  lessons
        
↑ Back to top | Tablatures and chords for acoustic guitar and electric guitar, ukulele, drums are parodies/interpretations of the original songs. You may use it for private study, scholarship, research or language learning purposes only