Home » E » Everything Everything »

Everything Everything - Distant Past Bass

Artists:  A B C D E F G H I J K L M N O P Q R S T U V W X Y Z # 

Distant Past Bass

(ver. 1) Click to play this song!
Everything Everything
[Intro]
0:01
G|---------------------------------------------------------------------------|
D|-------------------4-5--4-5-/-9--------------------------------------------|
A|---12\--5-7----5-7---------------------------------------------------------|
E|---------------------------------------------------------------------------|

[Pre-Chorus]
0:31
"...distant past..."
G|---------------------------------------------------------------------------|
D|---------------------------------------------------------------------------|
A|---------------------10-9-7------------------------------------------------|
E|---3-2-0----3-2-0--------------3-2-0---------------------------------------|

G|---------------------------------------------------------------------------|
D|---------------------------------------------------------------------------|
A|---------------------10-9-7--------5\--------------------------------------|
E|---3-2-0----3-2-0--------------3-2-----------------------------------------|

[Chorus]
1:00
"Take me to the distant past..."
G|---------------------------------------------------------------------------|
D|---------------------------------------------------------------------------|
A|---7\-------------------------------5-4------------------------------------|
E|------0--0-2-2-3--3--3-2-0--5--5--5------3--3-/-7-10-9---------------------|

G|---------------------------------------------------------------------------|
D|--------------------------------------------5------------------------------|
A|---7\-------------------------------5-4-------/-12/14-12-------------------|
E|------0--0-2-2-3--3--7-5-3--5--5--5------3---------------15----------------|

[Interlude]
1:14
G|---------------------------------------------------------------------------|
D|-------------------4-5--4-5-/-9--------------------------------------------|
A|---12\--5-7----5-7---------------------------------------------------------|
E|---------------------------------------------------------------------------|

[Pre-Chorus]
1:37
"...distant past..."
G|---------------------------------------------------------------------------|
D|---------------------------------------------------------------------------|
A|---------------------10-9-7------------------------------------------------|
E|---3-2-0----3-2-0--------------3-2-0---------------------------------------|

G|---------------------------------------------------------------------------|
D|---------------------------------------------------------------------------|
A|---------------------10-9-7--------5\--------------------------------------|
E|---3-2-0----3-2-0--------------3-2-----------------------------------------|

[Chorus]
2:06
"Take me to the distant past..."
G|---------------------------------------------------------------------------|
D|---------------------------------------------------------------------------|
A|---7\-------------------------------5-4------------------------------------|
E|------0--0-2-2-3--3--3-2-0--5--5--5------3--3-/-7-10-9---------------------|

G|---------------------------------------------------------------------------|
D|--------------------------------------------5------------------------------|
A|---7\-------------------------------5-4-------/-12/14-12-------------------|
E|------0--0-2-2-3--3--7-5-3--5--5--5------3---------------15----------------|

[Bridge]
2:28
"Past...!"
G|---------------------------------------------------------------------------|
D|-------------------4-5--4-5-/-9--------------------------------------------|
A|---12\--5-7----5-7---------------------------------------------------------| (x2)
E|---------------------------------------------------------------------------|

2:50
"Distant-dis-distant..."
G|---------------------------------------------------------------------------|
D|---------------------------------------------------------------------------|
A|---5-4---7\--5-4---7\--5-4-------------------------------------------------|
E|-------5---------5---------------------------------------------------------|

3:01
"Stop!"
G|---------------------------------------------------------------------------|
D|--------------------------------------------11-11--------------------------|
A|---7--7--7--9-9--10--10--10-9-7--12--12--12--------10--10------------------|
E|-----------------------------------------------------------7-5-3-----------|

[Chorus]
3:09
"Take me to the distant past..."
G|---------------------------------------------------------------------------|
D|---------------------------------------------------------------------------|
A|---7\-------------------------------5-4------------------------------------|
E|------0--0-2-2-3--3--3-2-0--5--5--5------3--3-/-7-10-9---------------------|

G|---------------------------------------------------------------------------|
D|--------------------------------------------5------------------------------|
A|---7\-------------------------------5-4-------/-12/14-12-------------------|
E|------0--0-2-2-3--3--7-5-3--5--5--5------3---------------15----------------|

[Outro]
3:24
G|---------------------------------------------------------------------------|
D|---------------------------------------------------------------------------|
A|---7\---------------------------------4-2----------------------------------|
E|------0--0-2-2-3--3--777-5-3--5--5--5------3--3--777-5-3-------------------|

G|---------------------------------------------------------------------------|
D|---------------------------------------------------------------------------|
A|---7\---------------------------------4-2----------------------------------|
E|------0--0-2-2-3--3--777-5-3--5--5--5------3--3--775-3-0-------------------|            
Submit corrections

↑ Back to top | Tablatures and chords for acoustic guitar and electric guitar, ukulele, drums are parodies/interpretations of the original songs. You may use it for private study, scholarship, research or language learning purposes only