» » »

Evans Blue - Beg Tabs

Artists:  A B C D E F G H I J K L M N O P Q R S T U V W X Y Z # 

Beg Tabs

(ver. 1) Click to play this song!
Evans Blue
 Rating:
4/5 (8 votes)

 Beg lessons Tabs too difficult? Try these video lessons and learn fast
 
                Tuning: Drop C# (Drop Db)
--C# G# C# F# A# D#--

 *****As always, listen for correct timing.*****

Intro
D#|---------------------------|
A#|---------------------------|
F#|---4---5---7-----4---5---7-|
C#|---------------------------|
G#|-0---0---------0---0-------|
C#|---------------------------|

D#|---------------------------|
A#|--------0------------0-----|
F#|---7------7------7-----7---|
C#|-----7------7------7-----7-|
G#|---------------------------|
C#|-5-------------5-----------|

Verse
D#|---------------------------|
A#|---------------------------|
F#|---4---5---7-----4---5---7-|\
C#|---------------------------| \
G#|-0---0---------0---0-------|  \
C#|---------------------------|   \This is 1st measure of verse...
                                  /     |
D#|---------------------------|  /      |
A#|--------0------------0-----| /       |
F#|---7------7------7-----7---|/        |
C#|-----7------7------7-----7-|         \/
G#|---------------------------|
C#|-5-------------5-----------|
                           This is the 1st measure background verse guitar 
                                    listen for correct timing 
D#|-------------------------------------------|
A#|------8---------------10--10/12--10/12--8--|
F#|-------------------------------------------|
C#|-9-10-------------9h10--10-----------------|
G#|-------------------------------------------|
C#|-------------------------------------------|

         2nd measure verse
D#|---------------------------|
A#|---------------------------|
F#|---4---5---7-----4---5---7-|
C#|---------------------------|
G#|-0---0---------0---0-------|
C#|---------------------------|

D#|---------------------------|
A#|--------0------------0-----|
F#|---7------7------7-----7---|
C#|-----7------7------7-----7-|
G#|---------------------------|
C#|-5-------------5-----------|

     2nd measure verse background (lead) guitar
D#|-------------------------------------------------|
A#|------8--------------10/12\10-10-10/12-10/12-8---|
F#|-------------------------------------------------|
C#|-9-10--------------------------------------------|
G#|-------------------------------------------------|
C#|-------------------------------------------------|



Small bridge to chorus
D#|--------------3----------------3------|
A#|----------0-----0----------0-----0----|
F#|------5-----5----------5------5-------|
C#|----5---5------------5---5------------|
G#|--------------------------------------|
C#|--3----------------3------------------|

chorus
           -----1st measure chorus---
Rhythm
D#|------------------------|
A#|------------------------|
F#|------------------------|
C#|-10----12----2----5-----|
G#|-10----12----2----5-----|
C#|-10----12----2----5-----|

Lead
D#|--------------------------------------|
A#|--------------------------------------|
F#|--------------------------------------|
C#|--10-9-10-12--9-10---10-9-10-12--9-10-|
G#|--------------------------------------| 
C#|--------------------------------------| 

D#|--------------------------------------|
A#|--------------------------------------|
F#|--------------------------------------|
C#|--10-9-10----10-9---10-9-10-12--9-10--|
G#|----------12--------------------------| 
C#|--------------------------------------|

      -------2nd measure chorus----

Rhythm
D#|------------------------|
A#|------------------------|
F#|------------------------|
C#|-10----12----2----5-----|
G#|-10----12----2----5-----|
C#|-10----12----2----5-----|

Lead                                       
D#|--------------------------------------|
A#|--------------------------------------|
F#|-----------------------------12-------|
C#|--10-9-10-12--9-10---10-9-10----9-10--|
G#|--------------------------------------| 
C#|--------------------------------------| 

D#|--------------------------------------|
A#|--------------------------------------|
F#|--------------------------------------|
C#|--10-9-10----10-9---10-9-10-12--9-10--|
G#|----------12--------------------------| 
C#|--------------------------------------|


***Now instead of an intro and 2 verse measures, there are 3 verse measures.

All measure for verse rhythm will be the same. 

Rhythm
D#|---------------------------|
A#|---------------------------|
F#|---4---5---7-----4---5---7-|
C#|---------------------------|
G#|-0---0---------0---0-------|
C#|---------------------------|

D#|---------------------------|
A#|--------0------------0-----|
F#|---7------7------7-----7---|
C#|-----7------7------7-----7-|
G#|---------------------------|
C#|-5-------------5-----------|

2nd verse 1st measure lead
D#|-------------------------------------------|
A#|------8---------------10--10/12--10/12--8--|
F#|-------------------------------------------|
C#|-9-10-------------9h10--10-----------------|
G#|-------------------------------------------|
C#|-------------------------------------------|

D#|------------|
A#|--15-15\\\--|
F#|------------|
C#|------------|
G#|------------|
C#|------------|

2nd verse 2nd measure lead
D#|----------------------------------------------------|
A#|--10/12-10/12--8-10-------------10---10/12-10/12--8-|
F#|----------------------------------------------------|
C#|----------------------------9h10--10----------------|
G#|----------------------------------------------------|
C#|----------------------------------------------------|

2nd verse 3rd measure lead
D#|-------------------------------------------|
A#|------8---------------10--10/12--10/12--8--|
F#|-------------------------------------------|
C#|-9-10-------------9h10--10-----------------|
G#|-------------------------------------------|
C#|-------------------------------------------|


Small bridge to chorus
D#|--------------3----------------3------|
A#|----------0-----0----------0-----0----|
F#|------5-----5----------5------5-------|
C#|----5---5------------5---5------------|
G#|--------------------------------------|
C#|--3----------------3------------------|

*****repeat same chorus as above******



Bridge
D#|---------------------------------------|
A#|--15----------12---------15--------12--|
F#|---------------------------------------|
C#|---------------------------------------|
G#|---------------------------------------|
C#|---------------------------------------|
end on
D#|------------|
A#|------------|
F#|----12------|
C#|------------|
G#|------------|
C#|------------|

*****repeat same chorus as above******

Outro
           -----1st measure outro---
Rhythm
D#|------------------------|
A#|------------------------|
F#|------------------------|
C#|-10----12----2----5-----|
G#|-10----12----2----5-----|
C#|-10----12----2----5-----|

Lead
D#|--------------------------------------|
A#|--------------------------------------|
F#|----------12----------------12--------|
C#|--10-9-10----9-10---10-9-10----9-10---|
G#|--------------------------------------| 
C#|--------------------------------------| 

D#|--------------------------------------|
A#|--------------------------------------|
F#|--------------------------------------|
C#|--10-9-10----10-9---10-9-10-12--9-10--|
G#|----------12--------------------------| 
C#|--------------------------------------|

           -----2nd measure outro---
Rhythm
D#|------------|
A#|------------|
F#|------------|
C#|-10----12---|
G#|-10----12---|
C#|-10----12---|
ends on
D#|-----|
A#|-----|
F#|-----|
C#|-2---|
G#|-2---|
C#|-2---|

Lead
D#|--------------------------------------|
A#|--------------------------------------|
F#|----------12----------------12--------|
C#|--10-9-10----9-10---10-9-10----9-10---|
G#|--------------------------------------| 
C#|--------------------------------------|
ends with
D#|------------|
A#|------------|
F#|---------12-|
C#|-10-9-10----|
G#|------------|
C#|------------|



Comments and ratings appreciated!!
            
Submit corrections


        Beg lessons Hard to play? Try these video lessons and learn fast Beg lessons
        
↑ Back to top | Tablatures and chords for acoustic guitar and electric guitar, ukulele, drums are parodies/interpretations of the original songs. You may use it for private study, scholarship, research or language learning purposes only