» » »

Evanescence - Sweet Sacrifice Tabs

Artists:  A B C D E F G H I J K L M N O P Q R S T U V W X Y Z # 

Sweet Sacrifice Tabs

(ver. 2) Click to play this song!
Evanescence
 Rating:
4/5 (4 votes)

 Sweet Sacrifice lessons Tabs too difficult? Try these video lessons and learn fast
 
                okay so this is my take on sweet sacrifice. hopefully you will all love it. send 
. = palm mute
/ = slide up
\ = slide down
* = natural harmonic
~ = let it ring

(Verse 1) 2x
It's true: we're all a little insane...
C#|-------------------------------------------|
G#|-------------------------------------------|
E |-------------------------------------------|
B |-777--77777-7777777----333--33333-33333\22-|
F#|-777--77777-7777777----333--33333-33333\22-|
B |-777--77777-7777777----333--33333-33333\22-|
    ...  ..... .......    ...  ..... ..... ..
(Chorus) 3x (the fourth time dont do the end slide)
Fear is only in our minds...
C#|-------------------------------------|
G#|-------------------------------------|
E |-9---7h9---10---9---10---7---7---7/9-|
B |---7-----7----7---7----7---5---5-----|
F#|-------------------------------------|
B |-------------------------------------|
      .     .    .   .    .   .   .
(Post Chorus)
C#|------------------------------------------------|
G#|------------------------------------------------|
E |------------------------------------------------|
B |-557755--557755-557755-557755--557755-557755-55-|
F#|-557755--557755-557755-557755--557755-557755-55-|
B |-557755--557755-557755-557755--557755-557755-55-|
    ......  ...... ...... ......  ...... ......
(PreVerse) 2x
You poor sweet innocent thing...
C#|-------------------------------------------------------|
G#|-------------------------------------------------------|
E |-------------------------------------------------------|
B |-77558-7--5577558-7-555-555-77558-7--5577558-7-333-333-|
F#|-77558-7--5577558-7-555-555-77558-7--5577558-7-333-333-|
B |-77558-7--5577558-7-555-555-77558-7--5577558-7-333-333-|
                       ..  ..                     ..  ..
(Verse 2) 2x
One day I'm gonna forget your name...
C#|----------------------------------------------------------|
G#|----------------------------------------------------------|
E |----------------------------------------------------------|
B |-777--77777-7777777----333--33333-3333--------------------|
F#|-777--77777-7777777----333--33333-3333--------------------|
B |-777--77777-7777777----333--33333-33333\2-2-02~-05203*~-0-|
    ...  ..... .......    ...  ..... ....      .      .    .
(Chorus) 3x (the fourth time dont do the end slide)
Fear is only in our minds...
C#|-------------------------------------|
G#|-------------------------------------|
E |-9---7h9---10---9---10---7---7---7/9-|
B |---7-----7----7---7----7---5---5-----|
F#|-------------------------------------|
B |-------------------------------------|
      .     .    .   .    .   .   .
(Post Chorus)
C#|--------------------------|
G#|--------------------------|
E |--------------------------|
B |-557755--557755-557755-55-|
F#|-557755--557755-557755-55-|
B |-557755--557755-557755-55-|
    ......  ...... ......
(PreVerse) 2x
You poor sweet innocent thing...
C#|-------------------------------------------------------|
G#|-------------------------------------------------------|
E |-------------------------------------------------------|
B |-77558-7--5577558-7-555-555-77558-7--5577558-7-333-333-|
F#|-77558-7--5577558-7-555-555-77558-7--5577558-7-333-333-|
B |-77558-7--5577558-7-555-555-77558-7--5577558-7-333-333-|
                       ..  ..                     ..  ..
(Bridge) (theyre tens and twelves, he plays them for added bass)
[Her words are muffled speech]
C#|------------------------------------------------(4x)-|----------|
G#|-----------------------------------------------------|----------|
E |-----------------------------------------------------|----------|
B |-5/77777777/88888888/1010101010101010/12121212121212-|-15~~~-55-|
F#|-5/77777777/88888888/1010101010101010/12121212121212-|-15~~~-55-|
B |-5/77777777/88888888/1010101010101010/12121212121212-|-15~~~-55-|
(Outro)
C#|-------------------------------------------------------|
G#|-------------------------------------------------------|
E |-------------------------------------------------------|
B |-77558-7--5577558-7-555-555-77558-7--5577558-7-333-333-|
F#|-77558-7--5577558-7-555-555-77558-7--5577558-7-333-333-|
B |-77558-7--5577558-7-555-555-77558-7--5577558-7-333-333-|
                       ..  ..                     ..  ..
C#|-----------------------------------------------------------------|
G#|-----------------------------------------------------------------|
E |-----------------------------------------------------------------|
B |-77558-7-577-555577558-7-555-555577558-7-577-555577558-7-333-333-|
F#|-77558-7-577-555577558-7-555-555577558-7-577-555577558-7-333-333-|
B |-77558-7-577-555577558-7-555-555577558-7-577-555577558-7-333-333-|
            .   .           .   .           .   .           .   .
            
Submit corrections


        Sweet Sacrifice lessons Hard to play? Try these video lessons and learn fast Sweet Sacrifice lessons
        
↑ Back to top | Tablatures and chords for acoustic guitar and electric guitar, ukulele, drums are parodies/interpretations of the original songs. You may use it for private study, scholarship, research or language learning purposes only