» » »

Evanescence - My Last Breath Tabs

Artists:  A B C D E F G H I J K L M N O P Q R S T U V W X Y Z # 

My Last Breath Tabs

(ver. 3) Click to play this song!
Evanescence
 Rating:
4/5 (4 votes)

 My Last Breath lessons Tabs too difficult? Try these video lessons and learn fast
 
                Tuning - Drop D (DADGBE)

Tab Key:
#/# or #\#: Start on the first number, and slide up or down to the next one

This song is really cool, the parts during the verse and pre-chorus sound like
they are generated from a DJ sound system, so if you want to play them on 
guitar you'll need two players, because while the Pre-Verse is being played 
on Guitar I (distorted) Guitar II (clean) will also have started the verse for
the first time. Theres also a bridge section in here that im not too sure of 
how to play yet, but I'll figure that out soon enough. After that, just play
the chorus over and over until you fade out.

E--------------------------|---------------------------------------------------
B--------------------------|---------------------------------------------------
G--------------------------|---------------------------------------------------
D----------4--4/7--7\2--2--|--2/4\0--------------------------------------------
A----------4--4/7--7\2--2--|--2/4\0--------------------------------------------
D-7-9-7-6--4--4/7--7\2--2--|--2/4\0--------------------------------------------
  Intro - Guitar I            Pre-Verse - Guitar I                                        

E------------------------------------------------------------------------------
B------------------------------------------------------------------------------
G------------------------------------------------------------------------------
D-4-----11---------------------------------------------------------------------
A------------------------------------------------------------------------------
D------------------------------------------------------------------------------
  Verse - Guitar II                                                                       

E------------------------------------------------------------------------------
B----------------0-------------------------------------------------------------
G------6-------2---2-----------------------------------------------------------
D---------------------------4--------------------------------------------------
A----4--------------------2----------------------------------------------------
D--4--------0-----------2------------------------------------------------------
 Pre-chorus   - Guitar II,  Listen closely for the rhythm                                

E------------------------------------------------------------------------------
B------------------------------------------------------------------------------
G------------------------------------------------------------------------------
D---------4--4/7--7\2--2-------------------------------------------------------
A---------4--4/7--7\2--2-------------------------------------------------------
D-7-9-7-6-4--4/7--7\2--2-------------------------------------------------------
 Chorus - Guitar I
            
Submit corrections


        My Last Breath lessons Hard to play? Try these video lessons and learn fast My Last Breath lessons
        
↑ Back to top | Tablatures and chords for acoustic guitar and electric guitar, ukulele, drums are parodies/interpretations of the original songs. You may use it for private study, scholarship, research or language learning purposes only