» » »

Evanescence - Lithium Tabs

Artists:  A B C D E F G H I J K L M N O P Q R S T U V W X Y Z # 

Lithium Tabs

(ver. 2) Click to play this song!
Evanescence
 Rating:
4/5 (4 votes)

 Lithium lessons Tabs too difficult? Try these video lessons and learn fast
 
                ----------------------------------------------------------------------------
                            LITHIUM - Evanescence
----------------------------------------------------------------------------

Tuning: Drob Bb (yeah... I know what you're thinking)


A lot of people were requesting me to tab this song... and I thought maybe I couldn't 
of the verses, but they turned out to not be so bad!


But god, I wanna let it go...
C |------------------------------------------------------------------------|
G |------------------------------------------------------------------------|
Eb|------------------------------------------------------------------------|
Bb|---------------------------0--------xx-0------------------xx-0----------|
F |---------------------------0--------xx-0------------------xx-0----------|
Bb|---------------------------0--------xx-0------------------xx-0----------|
                                                     (One guitar fades out,
                                                     other goes on to verse)

Verse

(Come to bed...)
   1 & 2 & 3 & 4 & 1 & 2 & 3 & 4 & 1 & 2 & 3 & 4 & 1 & 2 & 3 & 4 &
|-------------------------------------------------------------------|
|-------------------------------------------------------------------|
|------7-------7-------7-------7-------2---3-----2-------3----------|
|----7---7---7---7---7---7---7-------3-------3---------3-----3------|
|--5-------5-------5-------5-------1-----1-----1-----1--------------|
|-------------------------------------------------------------------|

   1 & 2 & 3 & 4 & 1 & 2 & 3 & 4 & 1 & 2 & 3 & 4 & 1 & 2 & 3 & 4 &
|-------------------------------------------------------------------|
|-------------------------------------------------------------------|
|------2---3-------------------5-------7-------7-------7-------7----|
|----3-------3---------5-0---5---5---7---7---7---7---7---7---7---7--|
|--1-----1-----1-0---5-----3-------5-------5-------5-------5--------|
|------------------5------------------------------------------------|

(Never wanted it to be so cold...)
   1 & 2 & 3 & 4 & 1 & 2 & 3 & 4 & 1 & 2 & 3 & 4 & 1 & 2 & 3 & 4 &
|-------------------------------------------------------------------|
|-------------------------------------------------------------------|
|------7-------7-------7-------7-------2---3-----2-------3----------|
|----7---7---7---7---7---7---7-------3-------3---------3-----3------|
|--5-------5-------5-------5-------1-----1-----1-----1--------------|
|-------------------------------------------------------------------|

   1 & 2 & 3 & 4 & 1 & 2 & 3 & 4 &
|-----------------------------------|
|-----------------------------------|
|------2---3-------------------5----|
|----3-------3---------5-0---5---5--|
|--1-----1-----1-0---5-----3--------|
|------------------5----------------|


(I can't hold on to me...)
   1 & 2 & 3 & 4 & 1 & 2 & 3 & 4 & 1 & 2 & 3 & 4 & 1 & 2 & 3 & 4 &
|-------------------------------------------------------------------|
|--------6---------------1---------------6--------------------------|
|------7-----7---------3-----3---------7-----7-----------7----------|
|----7---------7-----3---------3-----7---------7-------5-----5------|
|--5-------------5-1-------------1-5-------------5---5---------5----|
|--------------------------------------------------5-------------5--|


Chorus (Just these chords on the downbeats.  Live, Terry strums the 8th notes, and he 
sometimes in the recording, but only on the Eb (5) chord)

|----------------------|
|----------------------|
|----------------------|
|--0-------10-------5--|
|--0-------10-------5--|
|--0-------10-------5--|


Bridge
   1 & 2 & 3 & 4 & 1 & 2 & 3 & 4 & 1 & 2 & 3 & 4 & 1 & 2 & 3 & 4 &
|------------------------------------------------------------------|
|------------------------------------------------------------------|
|------------------------------------------------------------------|
|--8---------------10--------------0-------------------------------|
|--8---------------10--------------0-------7-8---10--8---7---8-----|
|--8---------------10--------------0-------------------------------|

(Drown my will to...)
   1 & 2 & 3 & 4 & 1 & 2 & 3 & 4 & 1 & 2 & 3 & 4 & 1 & 2 & 3 & 4 &
|------------------------------------------------------------------|
|------------------------------------------------------------------|
|------------------------------------------------------------------|
|--8---------------5-------10------0-------------------------------|
|--8---------------5-------10------0-------8-7---7---5---5---3-----|
|--8---------------5-------10------0-------------------------------|

(Here in the darkness...)
   1 & 2 & 3 & 4 & 1 & 2 & 3 & 4 & 1 & 2 & 3 & 4 & 1 & 2 & 3 & 4 &
|------------------------------------------------------------------|
|------------------------------------------------------------------|
|------------------------------------------------------------------|
|--8---------------7---------------0-------------------------------|
|--8---------------7---------------0-------7-8---10--8---7---8-----|
|--8---------------7---------------0-------------------------------|

   1 & 2 & 3 & 4 & 1 & 2 & 3 & 4 &
|----------------------------------|
|----------------------------------|
|----------------------------------|
|--8---------------5-------10------|
|--8---------------5-------10------|
|--8---------------5-------10------|

(Go...)
|------------------------|
|------------------------|
|------------------------|
|----0--------xx-0-------|
|----0--------xx-0-------|
|----0--------xx-0-------|


[Repeat Verse and Chorus]
            
Submit corrections


        Lithium lessons Hard to play? Try these video lessons and learn fast Lithium lessons
        
↑ Back to top | Tablatures and chords for acoustic guitar and electric guitar, ukulele, drums are parodies/interpretations of the original songs. You may use it for private study, scholarship, research or language learning purposes only