» » »

Evanescence - Lies Tabs

Artists:  A B C D E F G H I J K L M N O P Q R S T U V W X Y Z # 

Lies Tabs

(ver. 1) Click to play this song!
Evanescence
 Rating:
4/5 (4 votes)

 Lies lessons Tabs too difficult? Try these video lessons and learn fast
 
                ***Dropped D tuning***


Vocals

Intro/Breaks:
e------------------------------
B------------------------------
G------------2-----------------
D-------2-3----3-2-0-2---------  (about 12 times)
A----0-------------------------
D------------------------------


Chorus:
e--------------------------------------------------------------------------------
B--------------------------------------------------------------------------------
G--------------------------------------------------------------------------------
D--------------------------------------(3x)--------------------------------------
A--------8888---77---555---777---88-------------8888---77---555---333---11---0---
E-----0--------------------------------------0-----------------------------------


Verses:
e-------------------------------------------------
B-------------------------------------------------
G-------------------------------------------------
D----0--------------00---00---00------------------
A----0---(rings...)-00---00---00------------------
E----0--------------00---00---00------------------


Prechorus (a second time):
e--------------------------------------------------------------------------
B--------------------------------------------------------------------------
G--------------9-/-10----------------------6666--6---66666666--------------
D----0000------9-/-10----(repeat 6x)-------6666--6---66666666--------------
A----0000------7-/-8-----------------------4444--4---44444444--------------
E----0000------------------------------------------------------------------
pm   xxxx                                  xxxx 





Vocals

Verse 1:
Bound at every limb by my shackles of fear
Sealed with lies through so many tears
Lost from within, pursuing the end
I fight for the chance to be lied to again


Prechorus 1:
You'll never be strong enough
You'll never be good enough
You were never concieved in love
You will not rise above


Chorus:
They'll never see
I'll never be 
I'll struggle on and on to feed this hunger
Burning deep inside of me


Verse 2:
But through my tears breaks a blinding light
Birthing a dawn to this endless night 
Arms outstretched awaiting me
An open embrace upon a bleeding tree


Prechorus 2:
Rest in me and I'll comfort you
I have lived and I died for you
Abide in me and I vow to you
I will never forsake you

Chorus (repeat twice)


Prechorus 2

Chorus


Vocals
            
Submit corrections


        Lies lessons Hard to play? Try these video lessons and learn fast Lies lessons
        
↑ Back to top | Tablatures and chords for acoustic guitar and electric guitar, ukulele, drums are parodies/interpretations of the original songs. You may use it for private study, scholarship, research or language learning purposes only