» » »

Evanescence - Hello Tabs

Artists:  A B C D E F G H I J K L M N O P Q R S T U V W X Y Z # 

Hello Tabs

(ver. 3) Click to play this song!
Evanescence
 Rating:
4.3/5 (10 votes)

 Hello lessons Tabs too difficult? Try these video lessons and learn fast
 
                [Intro] 
   Am7                               Am7
e|---------------------------------|---------------------------------|
B|-----1---1---0---0-----------0---|-----1---1---0---0-----------0---|
G|---------------------0---0-----0-|---------------------0---0-----0-|  
D|---2---2---2---2---2---2---2-----|---2---2---2---2---2---2---2-----| 
A|-0-------------------------------|-0-------------------------------|  
E|---------------------------------|---------------------------------|   
   G                                 Em                                       
e|---------------------------------|---------------------------------|
B|---------0-------------------0---|---------0-------1---0---0-----0-|
G|-----0-------0---2---0---0-----0-|-------------0-------------2-0---|
D|---0---0---0---0---0---0---0-----|-----2---------2---2---2---------|
A|---------------------------------|---2---2---2---------------------|
E|-3-------------------------------|-0-------------------------------|


[Verse]
   Am7                               Am7
e|---------------------------------|---------------------------------|
B|-----1---1---0---0-----------0---|-----1---1---0---0-----------0---|
G|---------------------0---0-----0-|---------------------0---0-----0-|  
D|---2---2---2---2---2---2---2-----|---2---2---2---2---2---2---2-----| 
A|-0-------------------------------|-0-------------------------------|  
E|---------------------------------|---------------------------------|   
   G                                 Em                                       
e|---------------------------------|---------------------------------|
B|---------0-------------------0---|---------0-------1---0---0-----0-|
G|-----0-------0---2---0---0-----0-|-------------0-------------2-0---|
D|---0---0---0---0---0---0---0-----|-----2---------2---2---2---------|
A|---------------------------------|---2---2---2---------------------|
E|-3-------------------------------|-0-------------------------------|
   Am7                               Am7
e|---------------------------------|---------------------------------|
B|-----1---1---0---0-----------0---|-----1---1---0---0-----------0---|
G|---------------------0---0-----0-|---------------------0---0-----0-|  
D|---2---2---2---2---2---2---2-----|---2---2---2---2---2---2---2-----| 
A|-0-------------------------------|-0-------------------------------|  
E|---------------------------------|---------------------------------|   
   G                                 Em                                       
e|---------------------------------|---------------------------------|
B|---------0-------------------0---|---------0-------1---0---0-----0-|
G|-----0-------0---2---0---0-----0-|-------------0-------------2-0---|
D|---0---0---0---0---0---0---0-----|-----2---------2---2---2---------|
A|---------------------------------|---2---2---2---------------------|
E|-3-------------------------------|-0-------------------------------|


[Chorus] (play starred notes with your left hand thumb)
   F                                  Em              E
e|----------------------------------|---------------------------------|
B|------------------0-------1-------|---------0-------------------0---|
G|----------2---------2-------2-----|-------------0---2---1---2-----0-|
D|------3-----3---3-----3-------3---|-----2-----2---2---2---2---2-----|
A|----3---3-----3---------3-------3-|---2---2-------------------------|
E|-1*-------------------------------|-0-------------------------------|
   Am                                Am/G
e|-------------------------0-------|-------------------------0-------|
B|-1---------0-1---0-----------0---|-1---------0-1---0-----------0---|
G|-2---2---2-----------2-----------|-2---2---2-----------2-----------|
D|---2---2-------2---2---2---2---2-|---2---2-------2---2---2---2---2-|
A|-0-------------------------------|---------------------------------|
E|---------------------------------|-3-------------------------------|
   F                                  Dm                                              
e|----------------------------------|-------------------0-------1-------|
B|------------------0-------1-------|-----------3---------3-------3-----|
G|----------2---------2-------2-----|-------------2---------2-------2---|
D|------3-----3---3-----3-----------|-------0-------0---------0-------0-|
A|----3---3-----3---------3---------|-----0---0-------0-----------------|
E|-1*---------------------------1-0-|-10*-------------------------------|
   Em                                Em             E    (slow down in this measure)
e|-----------------0---------------|----------------0------------------|
B|---------0---------0-----0-------|----------0-----0------------------|
G|-------------0-------0-----0-----|------------0---1------------------|
D|-----2---------2-------2-----2---|--------2-----2-2------------------|
A|---2---2---2-------------------2-|------2---------2------------------|
E|-0-------------------------------|-1*p0-----------0------------------|


[Intro Reprise]
   Am7                               Am7
e|---------------------------------|---------------------------------|
B|-----1---1---0---0-----------0---|-----1---1---0---0-----------0---|
G|---------------------0---0-----0-|---------------------0---0-----0-|  
D|---2---2---2---2---2---2---2-----|---2---2---2---2---2---2---2-----| 
A|-0-------------------------------|-0-------------------------------|  
E|---------------------------------|---------------------------------|   
   G                                 Em                                       
e|---------------------------------|---------------------------------|
B|---------0-------------------0---|---------0-------1---0---0-----0-|
G|-----0-------0---2---0---0-----0-|-------------0-------------2-0---|
D|---0---0---0---0---0---0---0-----|-----2---------2---2---2---------|
A|---------------------------------|---2---2---2---------------------|
E|-3-------------------------------|-0-------------------------------|


[Verse]
   Am7                               Am7
e|---------------------------------|---------------------------------|
B|-----1---1---0---0-----------0---|-----1---1---0---0-----------0---|
G|---------------------0---0-----0-|---------------------0---0-----0-|  
D|---2---2---2---2---2---2---2-----|---2---2---2---2---2---2---2-----| 
A|-0-------------------------------|-0-------------------------------|  
E|---------------------------------|---------------------------------|   
   G                                 Em                                       
e|---------------------------------|---------------------------------|
B|---------0-------------------0---|---------0-------1---0---0-----0-|
G|-----0-------0---2---0---0-----0-|-------------0-------------2-0---|
D|---0---0---0---0---0---0---0-----|-----2---------2---2---2---------|
A|---------------------------------|---2---2---2---------------------|
E|-3-------------------------------|-0-------------------------------|
   Am7                               Am7
e|---------------------------------|---------------------------------|
B|-----1---1---0---0-----------0---|-----1---1---0---0-----------0---|
G|---------------------0---0-----0-|---------------------0---0-----0-|  
D|---2---2---2---2---2---2---2-----|---2---2---2---2---2---2---2-----| 
A|-0-------------------------------|-0-------------------------------|  
E|---------------------------------|---------------------------------|   
   G                                 Em                                       
e|---------------------------------|---------------------------------|
B|---------0-------------------0---|---------0-------1---0---0-----0-|
G|-----0-------0---2---0---0-----0-|-------------0-------------2-0---|
D|---0---0---0---0---0---0---0-----|-----2---------2---2---2---------|
A|---------------------------------|---2---2---2---------------------|
E|-3-------------------------------|-0-------------------------------|


[Chorus] (play starred notes with your left hand thumb)
   F                                  Em              E
e|----------------------------------|---------------------------------|
B|------------------0-------1-------|---------0-------------------0---|
G|----------2---------2-------2-----|-------------0---2---1---2-----0-|
D|------3-----3---3-----3-------3---|-----2-----2---2---2---2---2-----|
A|----3---3-----3---------3-------3-|---2---2-------------------------|
E|-1*-------------------------------|-0-------------------------------|
   Am                                Am/G
e|-------------------------0-------|-------------------------0-------|
B|-1---------0-1---0-----------0---|-1---------0-1---0-----------0---|
G|-2---2---2-----------2-----------|-2---2---2-----------2-----------|
D|---2---2-------2---2---2---2---2-|---2---2-------2---2---2---2---2-|
A|-0-------------------------------|---------------------------------|
E|---------------------------------|-3-------------------------------|
   F                                  Dm                                              
e|----------------------------------|-------------------0-------1-------|
B|------------------0-------1-------|-----------3---------3-------3-----|
G|----------2---------2-------2-----|-------------2---------2-------2---|
D|------3-----3---3-----3-----------|-------0-------0---------0-------0-|
A|----3---3-----3---------3---------|-----0---0-------0-----------------|
E|-1*---------------------------1-0-|-10*-------------------------------|
   Em                                Em             E    (slow down in this measure)
e|-----------------0---------------|----------------0------------------|
B|---------0---------0-----0-------|----------0-----0------------------|
G|-------------0-------0-----0-----|------------0---1------------------|
D|-----2---------2-------2-----2---|--------2-----2-2------------------|
A|---2---2---2-------------------2-|------2---------2------------------|
E|-0-------------------------------|-1*p0-----------0------------------|

[Cello Solo] (Rhythm guitar plays the intro section)

   Am7                               Am7
e|---------------------------------|---------------------------------|
B|---------------------------------|---------------------------------|
G|---------------------------------|---------------------------------|  
D|-2-------------------------------|-3-----------------2-------------| 
A|---------------------------------|-------------------------3-------|  
E|---------------------------------|---------------------------------|   
   G                                 Em                                       
e|---------------------------------|---------------------------------|
B|---------------------------------|---------------------------------|
G|---------------------------------|-----------------0---------------|
D|-0-------------------------------|-----------------------------0---|
A|---------------------------------|-0-------------------------------|
E|---------------------------------|---------3-----------------------|
   Am7                               Am7
e|---------------------------------|---------------------------------|
B|---------------------------------|---------------------------------|
G|---------------------------------|-2---------------4-------5-------|  
D|-2-------------------------------|---------2-----------------------| 
A|---------------------------------|---------------------------------|  
E|---------------------------------|---------------------------------|   
   G                                 Em                                       
e|---------------------------------|---------------------------------|          e|---|
B|---------------------------------|---------------------------------|          B|---|
G|-7---------------5---------------|-4---------------0---------------|  end on: G|-2-|
D|---------------------------------|---------------------------------|          D|---|
A|---------------------------------|---------------------------------|          A|---|
E|---------------------------------|---------------------------------|          E|---|

[Chorus] (play starred notes with your left hand thumb)
   F                                  Em              E
e|----------------------------------|---------------------------------|
B|------------------0-------1-------|---------0-------------------0---|
G|----------2---------2-------2-----|-------------0---2---1---2-----0-|
D|------3-----3---3-----3-------3---|-----2-----2---2---2---2---2-----|
A|----3---3-----3---------3-------3-|---2---2-------------------------|
E|-1*-------------------------------|-0-------------------------------|
   Am                                Am/G
e|-------------------------0-------|-------------------------0-------|
B|-1---------0-1---0-----------0---|-1---------0-1---0-----------0---|
G|-2---2---2-----------2-----------|-2---2---2-----------2-----------|
D|---2---2-------2---2---2---2---2-|---2---2-------2---2---2---2---2-|
A|-0-------------------------------|---------------------------------|
E|---------------------------------|-3-------------------------------|
   F                                  Dm                                              
e|----------------------------------|-------------------0-------1-------|
B|------------------0-------1-------|-----------3---------3-------3-----|
G|----------2---------2-------2-----|-------------2---------2-------2---|
D|------3-----3---3-----3-----------|-------0-------0---------0-------0-|
A|----3---3-----3---------3---------|-----0---0-------0-----------------|
E|-1*---------------------------1-0-|-10*-------------------------------|
   Em                                Em             E    (slow down in this measure)
e|-----------------0---------------|----------------0------------------|
B|---------0---------0-----0-------|----------0-----0------------------|
G|-------------0-------0-----0-----|------------0---1------------------|
D|-----2---------2-------2-----2---|--------2-----2-2------------------|
A|---2---2---2-------------------2-|------2---------2------------------|
E|-0-------------------------------|-1*p0-----------0------------------|


[Intro Reprise] (Outro)
   Am7                               Am7
e|---------------------------------|---------------------------------|
B|-----1---1---0---0-----------0---|-----1---1---0---0-----------0---|
G|---------------------0---0-----0-|---------------------0---0-----0-|  
D|---2---2---2---2---2---2---2-----|---2---2---2---2---2---2---2-----| 
A|-0-------------------------------|-0-------------------------------|  
E|---------------------------------|---------------------------------|   
   G                                 Em                                       
e|---------------------------------|---------------------------------|
B|---------0-------------------0---|---------0-------1---0---0-----0-|
G|-----0-------0---2---0---0-----0-|-------------0-------------2-0---|
D|---0---0---0---0---0---0---0-----|-----2---------2---2---2---------|
A|---------------------------------|---2---2---2---------------------|
E|-3-------------------------------|-0-------------------------------|

            
Submit corrections


        Hello lessons Hard to play? Try these video lessons and learn fast Hello lessons
        
↑ Back to top | Tablatures and chords for acoustic guitar and electric guitar, ukulele, drums are parodies/interpretations of the original songs. You may use it for private study, scholarship, research or language learning purposes only