» » »

Evanescence - Father Away Tabs

Artists:  A B C D E F G H I J K L M N O P Q R S T U V W X Y Z # 

Father Away Tabs

(ver. 2) Click to play this song!
Evanescence
 Rating:
4/5 (4 votes)

 Father Away lessons Tabs too difficult? Try these video lessons and learn fast
 
                Father Away

Intro guitar 1 :
-13-13-13-------13-13-12-12-12-------12-12-10-(play 15 times)-----------------I
----------9-9-9----------------9-9-9------------------------------------------I

-13-13-13-------13-13-15-15-15-12-12-12-13-13-17-(play 15 times)--------------I
----------9-9-9---------------------------------------------------------------I




chorus guitar 1 : 0 min 12 sec :
-13-13-13-------13-13-12-12-12-------12-12-10-(play 15 times)-----------------I
----------9-9-9----------------9-9-9------------------------------------------I

-13-13-13-------13-13-15-15-15-12-12-12-13-13-17-(play 15 times)--------------I
----------9-9-9---------------------------------------------------------------I





chorus guitar 2 : 0 min 12 sec :
-7-7-7---9-9-9---9-/-10-/9---9-/-12-12-12-12--10-10-10-10---9-9-9-9-/-10-10----I
-5-5-5-0-7-7-7-0-7-/-8-/-7---7-/-10-10-10-10--8--8--8--8----7-7-7-7-/-8--8-----I

-7-7-7---9-9-9---9-/-10-/9---9-/-12-12-12-12--10-10-10-10---9-9-9-9-/-5-5------I
-5-5-5-0-7-7-7-0-7-/-8-/-7---7-/-10-10-10-10--8--8--8--8----7-7-7-7-/-3-3------I




chorus guitar 1 : 0 min 46 sec :
-13-13-13-------13-13-12-12-12-------12-12-10-(play 15 times)----------------I
----------9-9-9----------------9-9-9-----------------------------------------I
                                                                                      play 2 t
imes
-13-13-13-------13-13-15-15-15-12-12-12-13-13-17-(play 15 times)-------------I
----------9-9-9--------------------------------------------------------------I




chorus guitar 2 : 0 min 46 sec :
-7-7-7---9-9-9---9-/-10-/9---9-/-12-12-12-12--10-10-10-10---9-9-9-9-/-10-10---I
-5-5-5-0-7-7-7-0-7-/-8-/-7---7-/-10-10-10-10--8--8--8--8----7-7-7-7-/-8--8----I
                                                                                      play 2 t
imes
-7-7-7---9-9-9---9-/-10-/9---9-/-12-12-12-12--10-10-10-10---9-9-9-9-/-5-5-----I
-5-5-5-0-7-7-7-0-7-/-8-/-7---7-/-10-10-10-10--8--8--8--8----7-7-7-7-/-3-3-----I





Verse guitar 1 : 1 min 09 sec :
----------------------------(play 8 times)-----------------------------------I P.M
-00000----0000-----00--------------------------------------------------------I
-00000----0000-----00--------------------------------------------------------I





Verse guitar 2 : 1 min 09 sec :
----------------------------(play 8 times)-----------------------------------I P.M
-00-------00---0-00----------------------------------------------------------I
-00-------00---0-00----------------------------------------------------------I




chorus guitar 1 : 1 min 31 sec :
-13-13-13-------13-13-12-12-12-------12-12-10-(play 15 times)----------------I
----------9-9-9----------------9-9-9-----------------------------------------I

-13-13-13-------13-13-15-15-15-12-12-12-13-13-17-(play 15 times)-------------I
----------9-9-9--------------------------------------------------------------I




chorus guitar 2 : 1 min 31 sec :
-7-7-7---9-9-9---9-/-10-/9---9-/-12-12-12-12--10-10-10-10---9-9-9-9-/-10-10---I
-5-5-5-0-7-7-7-0-7-/-8-/-7---7-/-10-10-10-10--8--8--8--8----7-7-7-7-/-8--8----I

-7-7-7---9-9-9---9-/-10-/9---9-/-12-12-12-12--10-10-10-10---9-9-9-9-/-5-5-----I
-5-5-5-0-7-7-7-0-7-/-8-/-7---7-/-10-10-10-10--8--8--8--8----7-7-7-7-/-3-3-----I


chorus guitar 2 : 1 min 52 sec :
-7-7-7---9-9-9---9-/-10-/9---9-/-12-12-12-12--10-10-10-10---9-9-9-9-/-10-10---I
-5-5-5-0-7-7-7-0-7-/-8-/-7---7-/-10-10-10-10--8--8--8--8----7-7-7-7-/-8--8----I

-7-7-7---9-9-9---9-/-10-/9---9-/-12-12-12-12--10-10--2-2-2-2-2-2-2-2----------I
-5-5-5-0-7-7-7-0-7-/-8-/-7---7-/-10-10-10-10--8--8---0-0-0-0-0-0-0-0----------I
                                                    _______________
                                                          P.M




Interlude guitar 1 : 1 min 54 sec :
-----1-0-----------1-0----------1-0-------0---0-----------------------------I
---2-----2-------2-----2------2-----2-------2-------------------------------I
-2-------------2------------2-------------------------(play 2 times)--------I

Interlude guitar 2 : 1 min 54 sec :
------2--------------5-------------7----------9------------------------------I
------2--------------5-------------5----------7---------(play 2 times)-------I
------0--------------3-------------5----------7------------------------------I




chorus guitar 1 : 2 min 20 sec :
-13-13-13-------13-13-12-12-12-------12-12-10-(play 15 times)----------------I
----------9-9-9----------------9-9-9-----------------------------------------I
                                       play 7 times
-13-13-13-------13-13-15-15-15-12-12-12-13-13-17-(play 15 times)-------------I
----------9-9-9--------------------------------------------------------------I




chorus guitar 2 : 2 min 20 sec :
-7-7-7---9-9-9---9-/-10-/9---9-/-12-12-12-12--10-10-10-10---9-9-9-9-/-10-10---I
-5-5-5-0-7-7-7-0-7-/-8-/-7---7-/-10-10-10-10--8--8--8--8----7-7-7-7-/-8--8----I
                                       play 7 times
-7-7-7---9-9-9---9-/-10-/9---9-/-12-12-12-12--10-10-10-10---9-9-9-9-/-5-5-----I
-5-5-5-0-7-7-7-0-7-/-8-/-7---7-/-10-10-10-10--8--8--8--8----7-7-7-7-/-3-3-----I




outro guitar 1 : 3 min 39 sec :
-13-13-13-------13-13-12-12-12-------12-12-10-(play 15 times)----------------I
----------9-9-9----------------9-9-9-----------------------------------------I

-13-13-13-------13-13-15-15-15-12-12-12-13-13-17-(play 10 times & let ring)--I
----------9-9-9--------------------------------------------------------------I
            
Submit corrections


        Father Away lessons Hard to play? Try these video lessons and learn fast Father Away lessons
        
↑ Back to top | Tablatures and chords for acoustic guitar and electric guitar, ukulele, drums are parodies/interpretations of the original songs. You may use it for private study, scholarship, research or language learning purposes only