» » »

Evanescence - Call Me When You're Sober Tabs

Artists:  A B C D E F G H I J K L M N O P Q R S T U V W X Y Z # 

Call Me When You're Sober Tabs

(ver. 3) Click to play this song!
Evanescence
 Rating:
4/5 (4 votes)

 Call Me When You're Sober lessons Tabs too difficult? Try these video lessons and learn fast
 
                
Tuning: Standard Tuning, EADGBe
Key:    PM = palm mute
        

Intro (Letters above #’s represent piano chords):
    Em C  Em D# G  D# G  C    G
e|-------------------------------|
B|-------------------------------|
G|-----5-----------------5-------|
D|--2--5--2--8--5--8--5--5----5--|
A|--2--3--2--6--5--6--5--3----5--|
E|--0-----0--6--3--6--3-------3--|

e|----------------------------------------------|
B|----------------------------------------------|
G|-------------12--11--9------------12--11------|
D|--7--9-9-9--------------7--9-9-9----------10--|
A|--5--7-7-7--------------5--7-7-7--------------|
E|--5--7-7-7--------------5--7-7-7--------------|

e|----------------------------------------------|
B|----------------------------------------------|
G|-------------12--11--9------------12--11------|
D|--7--9-9-9--------------7--9-9-9----------12--|
A|--5--7-7-7--------------5--7-7-7--------------|
E|--5--7-7-7--------------5--7-7-7--------------|


Verse
e|----------------------------|
B|----------------------------|
G|----------------------------|
D|--7--9-9-9------------------| x4
A|--5--7-7-7------------------|
E|--5--7-7-7--0-0--0--0--0-0--|
             |-----PM-------|

e|----------------------------------------------|
B|----------------------------------------------|
G|-------------12--11--9------------12--11------|
D|--7--9-9-9--------------7--9-9-9----------10--|
A|--5--7-7-7--------------5--7-7-7--------------|
E|--5--7-7-7--------------5--7-7-7--------------|

e|----------------------------------------------|
B|----------------------------------------------|
G|-------------12--11--9------------12--11------|
D|--7--9-9-9--------------7--9-9-9----------12--|
A|--5--7-7-7--------------5--7-7-7--------------|
E|--5--7-7-7--------------5--7-7-7--------------|


Pre- Chorus
e|-------------------------------------------|
B|-------------------------------------------|
G|--5--5-5-5--5--5-5-5--5--5-5--4--4-4-4--4--|
D|--5--5-5-5--5--5-5-5--5--5-5--4--4-4-4--4--|
A|--3--3-3-3--3--3-3-3--3--3-3--2--2-2-2--2--|
E|-------------------------------------------|
      |-PM--|   |-PM--|           |-PM--|


Chorus
e|---------------------------------------|
B|---------------------------------------|
G|------5-----------------------5--------|
D|--2---5---2---8---5---8---5---5-----5--|
A|--2---3---2---6---5---6---5---3-----5--|
E|--0-------0---6---3---6---3---------3--|


Pre-Verse
e|------------------------|
B|------------------------|
G|------------------------|
D|--7--9-9-9----7--9-9-9--|
A|--5--7-7-7----5--7-7-7--|
E|--5--7-7-7----5--7-7-7--|


Verse Altered
e|-------------------------|
B|-------------------------|
G|-------------------------|
D|--9-9-9--2-2--2--2--2-2--|
A|--7-7-7--2-2--2--2--2-2--|
E|--7-7-7--0-0--0--0--0-0--|
          |-----PM-------|

e|----------------------------|
B|----------------------------|
G|----------------------------|
D|--7--9-9-9--2-2--2--2--2-2--| x3
A|--5--7-7-7--2-2--2--2--2-2--|
E|--5--7-7-7--0-0--0--0--0-0--|
             |-----PM-------|

e|----------------------------------------------|
B|----------------------------------------------|
G|-------------12--11--9------------12--11------|
D|--7--9-9-9--------------7--9-9-9----------10--|
A|--5--7-7-7--------------5--7-7-7--------------|
E|--5--7-7-7--------------5--7-7-7--------------|

e|----------------------------------------------|
B|----------------------------------------------|
G|-------------12--11--9------------12--11------|
D|--7--9-9-9--------------7--9-9-9----------12--|
A|--5--7-7-7--------------5--7-7-7--------------|
E|--5--7-7-7--------------5--7-7-7--------------|


Pre- Chorus
e|-------------------------------------------|
B|-------------------------------------------|
G|--5--5-5-5--5--5-5-5--5--5-5--4--4-4-4--4--|
D|--5--5-5-5--5--5-5-5--5--5-5--4--4-4-4--4--|
A|--3--3-3-3--3--3-3-3--3--3-3--2--2-2-2--2--|
E|-------------------------------------------|
      |-PM--|   |-PM--|           |-PM--|


Chorus
e|---------------------------------------|
B|---------------------------------------|
G|------5-----------------------5--------|
D|--2---5---2---8---5---8---5---5-----5--|
A|--2---3---2---6---5---6---5---3-----5--|
E|--0-------0---6---3---6---3---------3--|


Bridge part 1 (lightly played):
e|--------------------------------|
B|-----4-----------4--------------|
G|--5--5--------5--5--------------|
D|--5--5--5--5--5--5--5--8--5--8--|
A|--3--3--5--5--3--3--5--8--5--8--|
E|--------3--3--------3--6--3--6--|


Bridge part 2:
e|-------------------------------------------|
B|-------------------------------------------|
G|----------------------------------------4--|
D|--7--7--9----7--4--2----7--7--9----7----4--|
A|--7--5--7----3--2--2----7--5--7----3----2--|
E|--5--5--7----3--2--0----5--5--7----3-------|


End Chorus
e|------------------------------------------3--|
B|----------------------------------------3----|
G|------5-------------------5-----------0------|
D|--2---5---2---8---5---8---5---------0--------|
A|--2---3---2---6---5---6---3-------2----------|
E|--0-------0---6---3---6---------3------------|
            
Submit corrections


        Call Me When You're Sober lessons Hard to play? Try these video lessons and learn fast Call Me When You're Sober lessons
        
↑ Back to top | Tablatures and chords for acoustic guitar and electric guitar, ukulele, drums are parodies/interpretations of the original songs. You may use it for private study, scholarship, research or language learning purposes only