» » »

Evanescence - All That I'm Living For Tabs

Artists:  A B C D E F G H I J K L M N O P Q R S T U V W X Y Z # 

All That I'm Living For Tabs

(ver. 1) Click to play this song!
Evanescence
 Rating:
4/5 (4 votes)

 All That I'm Living For lessons Tabs too difficult? Try these video lessons and learn fast
 
                Tuning: Dropped Bb

||o  o|| repeat bar(s)
()       ghost note
\        slide down

The first verse is actually piano, but you can play it either way. i like it on acoustic better.


Intro (0:00), Gtr 1

|-----------------|-----------------|-----------------|-------------------|
|-----------------|-----------------|-----------------|-------------------|
|-----------------|-----------------|-----------------|-------------------|
|-4-4--0-0--0-4-0-|-4-4--0-0--0-4-0-|-4-4--0-0--0-4-0-|-4-4--0-0--(0)-(0)-|
|-4-4--0-0--0-4-0-|-4-4--0-0--0-4-0-|-4-4--0-0--0-4-0-|-4-4--0-0--(0)-(0)-|
|-4-4--0-0--0-4-0-|-4-4--0-0--0-4-0-|-4-4--0-0--0-4-0-|-4-4--0-0--(0)-(0)-|


Verse (0:20), Gtr 1
                x4
||--------------|| |-----------|--------------|-------------|
||--------------|| |-----------|--------------|-------------|
||o------------o|| |-------7---|-----7--------|---7---------|
||o--------11--o|| |---4-7-----|-4-7-------4--|-7---7---4-7-|
||----9-11------|| |-5-------5-|---------5----|-------5-----|
||-11-----------|| |-----------|--------------|-------------|

                                                                   x3
|--------------------|--------------------| ||-----------------------||
|--------------------|--------------------| ||-----------------------||
|-7----------------7-|-(7)----------------| ||o---------------------o||
|--------------4-7---|-----7-----------11-| ||o-----------------11--o||
|-----------5--------|------------9-11----| ||-11-9-------9-11-------||
|--------------------|---------11---------| ||------11-11------------||

|--------------------|----------------|-----------------|
|--------------------|----------------|-----------------|
|---------------7----|-(7)-------7----|-(7)-------7-----|
|-----------4-7------|-------4-7------|-------4-7-----7-|
|-11-9----5----------|-----5----------|-----5-----------|
|------11------------|----------------|-----------------|

|-----------------|-------------------|-------------------------|
|-----------------|-------------------|-------------------------|
|-------6---6---6-|---------6---------|-------------------------|
|---4-6---6---6---|-7-5---4---7-5-4-4-|-(4)---------------------|
|-4---------------|-------------------|-------------------------|
|-----------------|-------------------|-------------------------|


Chorus (0:48), Gtr 1  x2

|-----------------|-----------------|-----------------|------------------|
|-----------------|-----------------|-----------------|------------------|
|-----------------|-----------------|-----------------|------------------|
|-4-4--0-0--0-4-0-|-4-4--0-0--0-4-0-|-4-4--0-0--0-4-0-|-4-4---0-0--0-4-0-|
|-4-4--0-0--0-4-0-|-4-4--0-0--0-4-0-|-4-4--0-0--0-4-0-|-4-4---0-0--0-4-0-|
|-4-4--0-0--0-4-0-|-4-4--0-0--0-4-0-|-4-4--0-0--0-4-0-|-4-4---0-0--0-4-0-|
|
|------------------------------|----------------------------------|
|-7-7-7------------------------|-7-7-7----------------------------|
|-------6-6-6------------------|-------6-6-6----------------------|
|------------------------------|-------------------5-5-5-5-5-5-5--|
|------------------------------|----------------------------------|
|-------------7-7-7-7-7-7-7-7--|-------------7-7-7----------------|
\                                                                 /
 \____________________ Second time through, x2 __________________/


Verse (1:23), Gtr 1
                        x4
||-------------------------|| |-------------------|-----------------|
||-------------------------|| |-------------------|-----------------|
||o-----------------------o|| |-------7-----------|-----7-----------|
||o---------11------------o|| |---4-7-------------|-4-7-----7-5-4---|
||-----9-11------11-9------|| |-5---------------5-|---------------5-|
||--11----------------11---|| |-------------------|-----------------|

                                                               x4
|--------------------|---------------| ||------------------------||
|--------------------|---------------| ||------------------------||
|-----7--------------|-----7---------| ||o----------------------o||
|-4-7-------------4--|---7-----7-5-4-| ||o---------11-----------o||
|---------------5----|---------------| ||-----9-11------11-9-----||
|--------------------|---------------| ||--11----------------11--||

|-------------------|--------------------|------------------------------------------|
|-------------------|--------------------|-------7----------------------------------|
|-------7-----------|--------7-----------|---4-7------------------------------------|
|---4-7-----------5-|----4-7-----------5-|-5----------------------------------------|
|-5-----------------|--------------------|------------------------------------------|
|-------------------|--------------------|------------------------------------------|

|-------------------------|--------------------|------------------------------------|
|----------6---6---6------|--------------------|------------------------------------|
|------4-6---6---6--------|----------6---------|------------------------------------|
|----4--------------------|-7-5----4---7-5-4-4-|-(4)--------------------------------|
|-------------------------|--------------------|------------------------------------|
|-------------------------|--------------------|------------------------------------|


Chorus (1:51), same as Chorus 1


Bridge (2:19) No guitar until (2:23)

|-------------------------------------------------------------------------|
|-------------------------------------------------------------------------|
|-------------------------------------------------------------------------|
|-11-11-11-11-11-11-11-11—9-9-9-9-9-9-9-9-0-0-0-0-0-0-0-0-0-0-0-0-0-0-0-0-|
|--9--9--9--9--9--9--9--9-7-7-7-7-7-7-7-7—0-0-0-0-0-0-0-0-0-0-0-0-0-0-0-0-|
|-----------------------------------------0-0-0-0-0-0-0-0-0-0-0-0-0-0-0-0-|
   *  *  *  *  *  *  *  * * * * * * * * *

|-----------------------------------------------------------------|
|-----------------------------------------------------------------|
|-----------------------------------------------------------------|
|-7-7-7-7-7-7-7-7-7-7-7-7-7-7-7-7-6-6-6-6-6-6-6-6-6-6-6-6-6-6-6-6-|
|-7-7-7-7-7-7-7-7-7-7-7-7-7-7-7-7-4-4-4-4-4-4-4-4-4-4-4-4-4-4-4-4-|
|-7-7-7-7-7-7-7-7-7-7-7-7-7-7-7-7---------------------------------|

|-----------------------------------------------------------------|
|-----------------------------------------------------------------|
|-----------------------------------------------------------------|
|-4-4-4-4-4-4-4-4-4-4-4-4-4-4-4-4-3-3-3-3-3-3-3-3-3-3-3-3-3-3-3-3-|
|-4-4-4-4-4-4-4-4-4-4-4-4-4-4-4-4-3-3-3-3-3-3-3-3-3-3-3-3-3-3-3-3-|
|-4-4-4-4-4-4-4-4-4-4-4-4-4-4-4-4-3-3-3-3-3-3-3-3-3-3-3-3-3-3-3-3-|

|-----------------------------------------------------------------|
|-----------------------------------------------------------------|
|-----------------------------------------------------------------|
|-7-7-7-7-7-7-7-7-7-7-7-7-7-7-7-7-6-6-6-6-6-6-6-6-6-6-6-6-6-6-6-6-|
|-7-7-7-7-7-7-7-7-7-7-7-7-7-7-7-7-4-4-4-4-4-4-4-4-4-4-4-4-4-4-4-4-|
|-7-7-7-7-7-7-7-7-7-7-7-7-7-7-7-7---------------------------------|

|-----------------------------------------------------------------|
|-----------------------------------------------------------------|
|-----------------------------------------------------------------|
|-4-4-4-4-4-4-4-4-2-2-2-2-2-2-2-2-0-0-0-0-0-0-0-0-0-0-0-0-0-0-0-0-|
|-4-4-4-4-4-4-4-4-2-2-2-2-2-2-2-2-0-0-0-0-0-0-0-0-0-0-0-0-0-0-0-0-|
|-4-4-4-4-4-4-4-4-2-2-2-2-2-2-2-2-0-0-0-0-0-0-0-0-0-0-0-0-0-0-0-0-|

|---------------------------------|
|---------------------------------|
|---------------------------------|
|-4-4-4-4-4-4-4-4-4-4-4-4-4-4-4-4-|
|-2-2-2-2-2-2-2-2-2-2-2-2-2-2-2-2-|
|---------------------------------|


Chorus (2:58), Gtr 1
|------------------|-----------------|
|------------------|-----------------|
|------------------|-----------------|
|--4-4--0-0--0-4-0-|-4-4--0-0--0-4-0-|
|--4-4--0-0--0-4-0-|-4-4--0-0--0-4-0-|
|--4-4--0-0--0-4-0-|-4-4--0-0--0-4-0-|

|------------------|-----------------|
|------------------|-----------------|
|------------------|-----------------|
|--4-4--0-0--0-4-0-|-4-4--0-0--0-4-0-|
|--4-4--0-0--0-4-0-|-4-4--0-0--0-4-0-|
|--4-4--0-0--0-4-0-|-4-4--0-0--0-4-0-|

|------------------------------------------------------------|
|------------------------------------------------------------|
|------------------------------------------------------------|
|--4--4----4----0--0---0-4-0-------4--4----4----0--0---0-4-0-|
|--4--4----4----0--0---0-4-0-------4--4----4----0--0---0-4-0-|
|--4--4----4----0--0---0-4-0-------4--4----4----0--0---0-4-0-|
|     *    *       *       *          *    *       *       *
|--------------------------------|--------------------------------------|
|-7-7-7--------------------------|-7-7-7--------------------------------|
|-------6-6-6--------------------|-------6-6-6--------------------------|
|-------------7-7-7-7-7-7-7-7-7--|-------------7-7-7--------------------|
|--------------------------------|-------------------5-5-5-5-5-5-5------|
|--------------------------------|--------------------------------------|

|------------------------------------------------------------|
|------------------------------------------------------------|
|------------------------------------------------------------|
|--4--4----4----0--0---0-4-0-------4--4----4----0--0---0-4-0-|
|--4--4----4----0--0---0-4-0-------4--4----4----0--0---0-4-0-|
|--4--4----4----0--0---0-4-0-------4--4----4----0--0---0-4-0-|
|     *    *       *       *          *    *       *       *
|--------------------------------|--------------------------------------|
|-7-7-7--------------------------|-7-7-7--------------------------------|
|-------6-6-6--------------------|-------6-6-6--------------------------|
|-------------7-7-7-7-7-7-7-7-7--|-------------7-7-7--------------------|
|--------------------------------|-------------------5-5-5-5-5-5-5------|
|--------------------------------|--------------------------------------|

|------------------------------------------------------------|
|------------------------------------------------------------|
|------------------------------------------------------------|
|--4--4----4----0--0---0-4-0-------4--4----4----0--0---0-4-0-|
|--4--4----4----0--0---0-4-0-------4--4----4----0--0---0-4-0-|
|--4--4----4----0--0---0-4-0-------4--4----4----0--0---0-4-0-|
      *    *       *       *          *    *       *       *
|------------------------------------------------------------|
|------------------------------------------------------------|
|------------------------------------------------------------|
|--4--4----4----0--0---0-4-0-------4--4----4----0--0---0-4-0-|
|--4--4----4----0--0---0-4-0-------4--4----4----0--0---0-4-0-|
|--4--4----4----0--0---0-4-0-------4--4----4----0--0---0-4-0-|
      *    *       *       *          *    *       *       *

|--------|
|--------|
|--------|
|--4—4\1-|
|--4—4\1-|
|--4—4\1-|


Thats it, YET another awesome song by an amazing band. Any questions, send me a message.
            
Submit corrections


        All That I'm Living For lessons Hard to play? Try these video lessons and learn fast All That I'm Living For lessons
        
↑ Back to top | Tablatures and chords for acoustic guitar and electric guitar, ukulele, drums are parodies/interpretations of the original songs. You may use it for private study, scholarship, research or language learning purposes only