» » »

Enter Shikari - Jester Tabs

Artists:  A B C D E F G H I J K L M N O P Q R S T U V W X Y Z # 

Jester Tabs

(ver. 2) Click to play this song!
Enter Shikari
 Rating:
4/5 (4 votes)

 Jester lessons Tabs too difficult? Try these video lessons and learn fast
 
                "(1)
-------------------------------------------------------------------------------
                             The Jester - Enter Shikari
-------------------------------------------------------------------------------

Hi, this is my favorite song off common dreads, and there was no good tabs for it,
so I thought i would give it a go. This is my first tab, so please go easy.
Any corrections will be gladly accepted, and full credit will be given.

Rock on!

Tuning: Drop C sharp

Intro:
No guitar during intro, just bass, so sit back and wait for the song to kick in.


Part 2:

Hard to hear, listen carefully, is played just at the end of the intro, before the heavy 
kicks in.
|---------------------------------|
|---------------------------------|
|---------------------------------|
|----------------------13/14------|
|--10h12-13p12--10h12--13/14------|
|---------------------------------|

|-----------------------------------------|
|-----------------------------------------|
|-----------------------------------------|
|--5757----5757--/88---5757----5757--3/8--|
|--5757----5757--/88---5757----5757--3/8--|
|--5757----5757--/88---5757----5757--3/8--|

|------------------------------------------------------------------------------------ | `
|----------------------------------------------------------------------------------|- |
|----------------------------------------------------------------------------------|- |
|--5757----5757--/88---5757----5757--3/8---5757----5757--/88---5757----5757--3/8---|- | x4
|--5757----5757--/88---5757----5757--3/8---5757----5757--/88---5757----5757--3/8---|- |
|--5757----5757--/88---5757----5757--3/8---5757----5757--/88---5757----5757--3/8----- | ,

(after 2nd time, strum behind the nut, giving that scratchy sound)


SYNTH TIME!!!!!

Do Do Do Dododo, Do do Do Do do do do!

Bridge:

|---------------------------------------------------------------------------|
|---------------------------------------------------------------------------|
|---------------------------------------------------------------------------|
|-1/22---------Play this part nice and slowly,------------------------------|
|-1/22---------I think he only strums once and uses a sustain pedal---------|
|-1/22---------However, I could be wrong------------------------------------|


Breakdown:

|--------------------------------------------------------------- |
|--------------------------------------------------------------- |
|--------------------------------------------------------------- |
|---333-323-3-32323-333-2-5-8/99----333-323-3-32323-333-9-5-8/7- | x 7 or 8 times,
|---333-323-3-32323-333-2-5-8/99----333-323-3-32323-333-9-5-8/7- |   listen to the song
|---333-323-3-32323-333-2-5-8/99----333-323-3-32323-333-9-5-8/7- |
    xxx xxx   xxxxx xxx             xxx xxx   xxxxx xxx

Outro:
Sorry, I couldnt tab this,


| /  slide up
| \  slide down
| h  hammer-on
| p  pull-off
| ~  vibrato
| +  harmonic
| x  Mute note
===============================================================================
"            
Submit corrections


        Jester lessons Hard to play? Try these video lessons and learn fast Jester lessons
        
↑ Back to top | Tablatures and chords for acoustic guitar and electric guitar, ukulele, drums are parodies/interpretations of the original songs. You may use it for private study, scholarship, research or language learning purposes only