Home » E » Enter Shikari »

Enter Shikari - Jester Bass

Artists:  A B C D E F G H I J K L M N O P Q R S T U V W X Y Z # 

Jester Bass

(ver. 2) Click to play this song!
Enter Shikari
 Rating:
4/5 (4 votes)
                "This song is funny as and is great so I thought id try tab it 

Tuning = drop D + down half a step

C#
G#
C#
F#


Intro/verse

F#-----------------------------------------------------------|
C#-----------------------------------------------------------|
G#-4-44-4-44-55-4-44-0\1-------------------------------------|
C#-----------------------------------------------------------|
Keep going this till Everything stops and it’s just the guitar playing.

Verse (heavyish part)

F#-----------------------------------------------------------|
C#-----------------------------------------------------------|
G#-444-4-4444-55-444-4-4444-0-5------------------------------|
C#-----------------------------------------------------------|
continue this until the techno bit comes in

Bridge (when the sliding guitar sound comes in)
F#-----------------------------------------------------------|
C#-----------------------------------------------------------|
G#-444444444444444444444-------------------------------------|
C#-----------------------------------------------------------|

*screamo bit*
F#--------------------------------------------------------------|
C#---------------------------5----------------------------------|
G#-444-44-4-444444-44-4-0-5-7-----------------------------------|
C#--------------------------------------------------------------|


End on the intro verse


Intro/verse

F#-----------------------------------------------------------|
C#-----------------------------------------------------------|
G#-4-44-4-44-55-4-44-0\1-------------------------------------|
C#-----------------------------------------------------------|

^
Ahh that was great
my compliments to the chef
im very satisfied
ill be sure to dine here again
FINE CUISINE
The stuffed cheese were very agreeable
all in all a splendid spread
"            
Submit corrections

↑ Back to top | Tablatures and chords for acoustic guitar and electric guitar, ukulele, drums are parodies/interpretations of the original songs. You may use it for private study, scholarship, research or language learning purposes only