» » »

Ennio Morricone - The Good The Bad And The Ugly Tabs

Artists:  A B C D E F G H I J K L M N O P Q R S T U V W X Y Z # 

The Good The Bad And The Ugly Tabs

(ver. 1) Click to play this song!
Ennio Morricone
 Rating:
4/5 (13 votes)
                It's a pretty long song from the greatest western ever made.  In the movie I'm not sure 
ever played straight through, but I have the version off of We All Love Ennio Morricone, 

I also play it with a capo on the 10th fret, but only on the highest 4 strings (DGBE), 
all of the notes will be from the top of the neck.

Riff(?) 1

|-----------------------------------------------------------------------|
|-10h15p10h15p10--------------10h15p10h15p10----------------------------|
|---------------------------------------------------17------------------|
|-----------------15-17-----------------------15-17---------------------|
|-----------------------17----------------------------------------------|
|-----------------------------------------------------------------------|

-----------------------------------------------------------------------|
-10h15p10h15p10--------------10h15p10h15p10----------------------------|
-----------------------------------------------------------------------|
-----------------15-14----------------------17-------------------------|
-----------------------17-15-------------------17-17-------------------|
-----------------------------------------------------------------------|

  X2


Thing 2
-----------------------------------------------------------------------|
-----------------------------------------------------------------------|
-----------------------------------------------------------12h14-------|
-----------------------------------------------------14----------------|
------12----14-----------12----14--------12----14-12----15-------------|
-5-10----13---------5-10----13------5-10----13-------------------------|


Thing 3
-----------------------------------------------------------------------|
-----------------------------------------------------------------------|
----------12-------------12------------12------------12----------------|
-15p14-12----12-15p14-12---12-15p14-12---12-15p14-12----12-15p14-12----|
-----------------------------------------------------------------------|
-----------------------------------------------------------------------|

-----------------------------------------------------------------------------|
-----------------------------------------------------------------------------|
-----------------------------------------------------------------------------|
-15-14-----12p10----12-------------------------------------------------------|
-------15--------14----15-12--14p12----14-12---------------------------------|
------------------------------------15-------13--15p13-12-15-13-10-8--8-9-10-|


Thing 4

-----------------------------------------------------------------------|
-----------------------------------------------------------------------|
-----------------------------------------------------------12h14-------|
-----------------------------------------------------14----------------|
------12----14-----------12----14--------12----14-12----15-------------|
-5-10----13----------10----13-------5-10----13-------------------------|

Thing 5

|-----------------------------------------------------------------------|
|-10h15p10h15p10--------------10h15p10h15p10----------------------------|
|-----------------------------------------------------------------------|
|-----------------17--------------------------17------------------------|
|--------------------17-17-----------------------17-17------------------|
|-----------------------------------------------------------------------|

It goes:
Thing 1 X2
Thing 2 X1
Thing 3 X1
Thing 1 X1
Piano Interlude
Thing 4 X1
Thing 3 X1
Thing 1 X1
Thing 5 X1
Piano Interlude
Thing 1 (this time only the first part of the riff)
Voice/Piano Interlude
Thing 1 (just the first part again)
 END!

This song and The Ecstasy of Gold (also played by Metallica) are the only two songs 
in the movie, and yet the sound track is still amazing...

this tab I did all by myself!
            
Submit corrections

↑ Back to top | Tablatures and chords for acoustic guitar and electric guitar, ukulele, drums are parodies/interpretations of the original songs. You may use it for private study, scholarship, research or language learning purposes only