Home » E » Ennio Morricone »

Ennio Morricone - Il Tramonto Tabs

Artists:  A B C D E F G H I J K L M N O P Q R S T U V W X Y Z # 

Il Tramonto Tabs

(ver. 1) Click to play this song!
Ennio Morricone
These are the tabs for IL TRAMONTO by Ennio Morricone, "ear transcribed" and also my 
Hope it helps....


e--------------------------|
B------5-6-8--6-5---8--7---|
G---7----------------------|
D--------------------------|
A--------------------------|
E--------------------------|

e-----------5-------------|------5-7-5----5-4----------------------------|
B----5-6-8---8-6-5---3h5--|5--7-8-----8-7------5-7--5-4--5-4-2---4-------|
G-7---------------------5-|-----------------------------------------4--6-|
D-------------------------|----------------------------------------------|
A-------------------------|----------------------------------------------|
E-------------------------|----------------------------------------------|

e|-------5-------8-8|------5-7-5----5--3h5-|
B|--5-7-8-8-7-5-----|5--7-8-----8-7-------7|
G|7-----------------|----------------------|
D|------------------|----------------------|
A|------------------|----------------------|
E|------------------|----------------------|


e------------5--------------------|
B----5-6--6-8--8--6-----------5h6-|
G--7-----------------7-5-7-------7|
D---------------------------------|
A---------------------------------|
E---------------------------------|
            
Submit corrections

↑ Back to top | Tablatures and chords for acoustic guitar and electric guitar, ukulele, drums are parodies/interpretations of the original songs. You may use it for private study, scholarship, research or language learning purposes only