Home » E » Ennio Morricone »

Ennio Morricone - The Good The Bad And The Ugly Bass

Artists:  A B C D E F G H I J K L M N O P Q R S T U V W X Y Z # 

The Good The Bad And The Ugly Bass

(ver. 1) Click to play this song!
Ennio Morricone
G||---------------------------------------------------------------------------------||
D||----12--12--------------12--12-------10----12--12--------------12--12------------||
A||--12--12--12---10-----12--12--12---10----12--12--------------12--12--12-10-------||  X2
E||-------------13--10--------------13--------------13-12-10-8----------------10-10-||
B||---------------------------------------------------------------------------------||

                                                        
G||-------------------------------------------------|
D||------------------------------------14---17---19-|
A||-----12--15-----12--15-----12--15-12---15--------|
E||-1010--13---1010--13---1010--13------------------|
B||-------------------------------------------------|



			          Faster & faster
                             ---------------------------------
      p p          p p          p p          p p          p p                                            
G||--------12-----------12-----------12-----------12-------------------------------------11-|
D||-151412----12-151412----12-151412----12-151412----12-15141214--14-13-12-11-10-9-8-----11-|
A||--------------------------------------------------------------14-13-12-11-10-9-8---------|
E||-----------------------------------------------------------------------------------------|
B||-----------------------------------------------------------------------------------------|


G||-----7-9-7---7-9-7---7-9-7---7-9-7---7-9-7---7-9-7----7--7-7-777777777-7-7--7—7----|
D||-----------7-------7-------7-------7-------7-------7-------------------------------|
A||-----------------------------------------------------------------------------------|
E||-----------------------------------------------------------------------------------|
B||-----------------------------------------------------------------------------------|


G||-12-14-12----12-14-12----12-14-12----12-14-12----12-14-12----12-14-12---------|
D||----------12----------12----------12----------12----------12----------12------|
A||------------------------------------------------------------------------------|
E||------------------------------------------------------------------------------|
B||------------------------------------------------------------------------------|


G||----17-19-17----17-19-17----17-19-17----17-19-17----17-19-17----17-19-17-------15--------------------|
D||-17----------17----------17----------17----------17----------17----------17-15--------14141414141414-|
A||-----------------------------------------------------------------------------------12----------------|
E||-----------------------------------------------------------------------------------------------------|
B||-----------------------------------------------------------------------------------------------------|



         h		     p 	       h    		p
G||------------------12-14---------------------12/14-15-17-----------|
D||--12-14-12--14-15-------14-12-14---12-14-12-------------17-15-17--|
A||------------------------------------------------------------------|
E||------------------------------------------------------------------|
B||------------------------------------------------------------------|
                                                                 
        h		 h		 h				p
G||------------------------------------------------------------------------------------------|
D||--12-14-12-12----12-14-15-14--14----14-16-17-16----17-19-17-15-17-19-15-17-19171517-------|
A||--------------12-----------------12-------------17----------------------------------------|
E||------------------------------------------------------------------------------------------|
B||------------------------------------------------------------------------------------------|



						    X7
G||-19-21----19-21----19-21----19-21----19-21-------------||-----10-12-10-||-----------------|
D||-------19-------19-------19-------19-------19-10-------||*-10---------*||-----------------|
A||-------------------------------------------------------||--------------||-----------------| 
E||-------------------------------------------------------||*------------*||-7---------------|
B||-------------------------------------------------------||--------------||-----------------|
                                           
						    X7
G||-19-21----19-21----19-21----19-21----19-21-------------||-----12-14-12-||-----------------|
D||-------19-------19-------19-------19-------19-12-------||*-12---------*||-----------------|
A||-------------------------------------------------------||--------------||-----------------| 
E||-------------------------------------------------------||*------------*||-7---------------|
B||-------------------------------------------------------||--------------||-----------------|

						    X7
G||---19-21----19-21----19-21----19-21----19-21-------------||-----15-17-15-||----------------------------|
D||---------19-------19-------19-------19-------19-15-------||*-15---------*||----------------------------|
A||---------------------------------------------------------||--------------||-------------------10-12-13-| 
E||---------------------------------------------------------||*------------*||----------10-12-13----------|
B||-19------------------------------------------------------||--------------||-1012-----------------------|
                                           




G||------------------12-14---------------------12/14-15-17-----------|
D||--12-14-12--14-15-------14-12-14---12-14-12-------------17-15-17--|
A||------------------------------------------------------------------|
E||------------------------------------------------------------------|
B||------------------------------------------------------------------|
                                                                 
        h		 h		 h				p
G||------------------------------------------------------------------------------------------|
D||--12-14-12-12----12-14-15-14--14----14-16-17-16----17-19-17-15-17-19-15-17-19171517-------|
A||--------------12-----------------12-------------17----------------------------------------|
E||------------------------------------------------------------------------------------------|
B||------------------------------------------------------------------------------------------|

       X12	    X12    	        h					      h
G||----------||-7-9-5---||-------12------------------------------------|-------16----------------------------|
D||-9-10-7---||-------5-||----14----14-121412----14-12---14------10----|----14----17-141714-12-10-12-14-1714-|
A||--------7-||---------||-12-----------------12------12----1212----12-|-12----------------------------------|
E||----------||---------||---------------------------------------------|-------------------------------------|
B||----------||---------||---------------------------------------------|-------------------------------------|            
Submit corrections

↑ Back to top | Tablatures and chords for acoustic guitar and electric guitar, ukulele, drums are parodies/interpretations of the original songs. You may use it for private study, scholarship, research or language learning purposes only