» » »

Ennio Morricone - Larena Tabs

Artists:  A B C D E F G H I J K L M N O P Q R S T U V W X Y Z # 

Larena Tabs

(ver. 3) Click to play this song!
Ennio Morricone
 Rating:
4/5 (4 votes)
    Larena lessons Tabs too difficult? Try these video lessons and learn fast
                Tab written by Peter Treadway

Hey folks, this is my guitar rendition of part of the Kill Bill tune, “L’Arena,” which
played as the Bride (Uma Thurman) attempts to escape her live burial by busting out of
coffin.  On the soundtrack, it’s played by a trumpet, but in the movie you can hear a 
version played right before she’s buried, when Budd says “This is for breaking my
heart”

Please try to rate honestly, I worked really hard on this.

----0--------------------2--------------------0---------------2~-------|
----2--3--2--0--2~-------2--3--2--------------2--3--2--0--2---3~-------|
----2--------------------2--------4--2~-------2---------------2~-------|
----2--------------------4--------------------2---------------0~-------|
----0--------------------4--------------------0------------------------|
-------------------------2---------------------------------------------|

----0---------------0~-------4---------------2~----0--2--0-----0--0~---|
----2--3--2--0------0~-------5--7--5-----5---3~----0--------3-----2~---|
----2-----------2---1~-------6--------7------2~----1--------------2~---|
----2---------------2~-------6---------------0~----2--------------2~---|
----0---------------2~-------4---------------------2--------------0~---|
--------------------0~-------4---------------------0-------------------|

----2---------------2~----2---------------0-------0~-------------------|
----2--3--2-----2---3~----2--3--2--0------0-------2~-------------------|
----2--------4------2~----2-----------2---1----2--2~-------------------|
----4---------------0~----2---------------2-------2~-------------------|
----4---------------------0---------------2-------0~-------------------|
----2-------------------------------------0----------------------------|
            
Submit corrections

↑ Back to top | Tablatures and chords for acoustic guitar and electric guitar, ukulele, drums are parodies/interpretations of the original songs. You may use it for private study, scholarship, research or language learning purposes only