Home » E » Ennio Morricone »

Ennio Morricone - For A Few Dollars More Tabs

Artists:  A B C D E F G H I J K L M N O P Q R S T U V W X Y Z # 

For A Few Dollars More Tabs

(ver. 4) Click to play this song!
Ennio Morricone
[Intro - Whistle] x2
 
e|----------|------------|--------------------------|------------------------|
B|----------|------------|--------------------------|------------------------|
G|---7--5---|------------|----7---7-7-7-7-7---9-10--|-----7--7-7-7-7-7-5-----|
D|-7------7-|--5-7--5----|--7-----------------------|--7-----------------7---|
A|----------|---------5--|--------------------------|------------------------|
E|----------|------------|--------------------------|------------------------|
 
e|---------------------------------|-----------------------------------------|
B|---------------------------------|-----------------------------------------|
G|----7--7-7-7-7-7-9-10--7--5---5--|-----------------------------------------|
D|-7--------------------------7----|--7--5-5------------7--------------------|
A|---------------------------------|----------7---3-5------------------------|
E|---------------------------------|-----------------------------------------|
 
You can follow the whistle riff with power-chords:
 
|Dm|Dm|F|G|
|Dm|Dm|Bb|G|Am|Cm|Dm|
 
 
 
[Verse - Clean Electric Guitar]
 
e|-------------------5-----------------------5-------------------------------|
B|-----------------6-----------------------6---------------------------------|
G|------7-7-9-9-7---------------7-7-9-9-7------------------------------------|
D|---7-----------------------7-----------------------------------------------|
A|---------------------------------------------------------------------------|
E|---------------------------------------------------------------------------|
 
e|----------------------8---8------------------------------------------------|
B|-------------------10-------10-----------10--10----------------------------|
G|----10-10-12-12-10--------------7-7--10----------10---------10---12-10-9-7-|
D|-10--------------------------------------------------8-8-12----------------|
A|---------------------------------------------------------------------------|
E|---------------------------------------------------------------------------|
 
[Verse - Whistle]
 
[Outro - Clean Electric Guitar]
 
e|---------------------------------------------------------------------------|
B|---------------------------------------------------------------------------|
G|------7-7-9-9-7-------7-7-9-9-7--------------------------------------------|
D|---7---------------7-------------------------------------------------------|
A|---------------------------------------------------------------------------|
E|---------------------------------------------------------------------------|
 
e|---------------------------------------------------------------------------|
B|---------------------6--10-10----------------------------------------------|
G|------7-7-9-9-7----------------10- 12-12--9-10-10-7-9-5----9---------------|
D|---7----------------------------------------------------7------------------|
A|---------------------------------------------------------------------------|
E|---------------------------------------------------------------------------|
 
e|-----------------------------------------------------8---------------------|
B|--------------------------------------------------10-----------------------|
G|------7-7-9-9-7-------7-7-9-9-7-------10-10-12-12--------------------------|
D|---7---------------7---------------10--------------------------------------|
A|---------------------------------------------------------------------------|
E|---------------------------------------------------------------------------|
 
e|--8------------------------------------------------------------------------|
B|-----10----------10--10----------------------------------------10----------|
G|---------7--10-----------10------7--10-12-----0--2--4-----5----------------|
D|----------------------------8-8--------------------------------------------|
A|---------------------------------------------------------------------------|
E|---------------------------------------------------------------------------|
            
Submit corrections

↑ Back to top | Tablatures and chords for acoustic guitar and electric guitar, ukulele, drums are parodies/interpretations of the original songs. You may use it for private study, scholarship, research or language learning purposes only